Cifra Club

Comes Then Goes

Pearl Jam

Cifra: Principal (violão e guitarra)
tom: A
[Intro]
 
E|--3p0-----------------------------|
B|--0-----0-3p0---------------------|
G|--1-----------1-----0h1-1-4-1-0-1-|
D|--2-------------2-----------------|
A|--2---------------2---------------|
E|--0-------------------------------|

E|--3p0-----------------------------|
B|--0-----0-3p0---------------------|
G|--1-----------1-----0h1-1-4-4-1---|
D|--2-------------2-----------------|
A|--2---------------2---------------|
E|--0-------------------------------|
 
E|--3p0-----------------------------|
B|--0-----0-3p0---------------------|
G|--1-----------1-----0h1-1-4-1-0-1-|
D|--2-------------2-----------------|
A|--2---------------2---------------|
E|--0-------------------------------|

E|--3-------------------------------|
B|--0-------------------------------|
G|--1-------------------------------|
D|--2-------------------------------|
A|--2-------------------------------|
E|--0-------------------------------|

[Primeira Parte]

E 
High or low, where’d ya go?
 
Are you stuck in the middle?
                       A   A5(9)  A  A5(9)  A
A spectral invisible ghost
              E     ( E  G  A  D  E )
I’m here juxtaposed
       D       A    
Like images of angels 
         E  ( E  G  A  D  E )
In the snow
      D            A  
Our courage melts away
                E   E11  E
It comes then goes

    ↓ ↑ ↓  ↑ ↑  ↑  ↓
E|--0-0-0--0-0--0--0----------------|
B|--0-0-0--2-2--0--2----------------|
G|--2-2-2--2-2--2--2----------------|
D|--2-2-2--2-2--2--2----------------|
A|--0-0-0--0-0--0--0----------------|
E|----------------------------------|

E|--X-XXX---0---X---X---X-----------|
B|--X-XXX---0---2---3---X-----------|
G|--X-XXX---0---2---2---X-----------|
D|--2-222---X---2---0---2-----------|
A|--2-222---X---0---X---2-----------|
E|--0-000---3---X---X---0-----------|

E 
Where ya been? Can I find
 
A glimpse of my friend
                   
Don’t know where or 
                A    A5(9)  A  A5(9)  A
When one of us left
           E     ( G  A  D  E )
The other behind
   D                           
Divisions came and 
  A            E    ( G  A  D  E )
Troubles multiplied
   D                A    
Incisions made by scalpel 
 A5(9)     E
Blades of time 

[Refrão]

G  E  A  D    E    E11  E
Comes then goes
G  E  A  D    E    E11  E
Comes then goes
 
[Segunda Parte]

E 
Can I say, how ya been?
 
I can guess and conjecture
                       A       A5(9)  A  A5(9)  A
My altered perceptions unclear
             E   ( G  A  D  E )
Please interfere
 D              A  
Sadness comes, with 
             E   ( G  A  D  E )
It a sea of tears
       D         
Would some love be 
     A            E       E11  E
Best had it not appeared?
 
E 
Is this you? Here I stand
 
Intense recollections of pain
                  A   A5(9)  A  A5(9)  A
Self-neglecting again
              E       ( G  A  D  E )
Like you, I keep it in
 D                   A  
Thought you found a game 
                 E ( G  A  D  E )
Where you could win
   D          A  
It’s all vivisection 
       E
In the end
 
[Refrão]

G  E  A  D    E    E11  E
Comes then goes
G  E  A      E    
Comes then goes
Bm/F#  A   E
Comes and goes
 
( G  G  E  G  D  A  D  E )
( G  G  E  G  D  A  D  E )
( G  G  E  G  D  A  D  D  A  D  E )
 
[Terceira Parte]

 E
High or low, try again
 
She fell off the altar
                
A vision you caught 
          A  A5(9)  A  A5(9)  A
Her but then
              E  ( G  A  D  E )
A woodcut in red
     D      
Wish it was not 
 A               E  ( G  A  D  E )
You that she had led
 D             A 
Selfish navigation 
        E   E11  E
With no end

E 
Where’d ya sleep?
 
Can I find a 

Deeper connection
 
In the face of rejection
      A    A5(9)  A  A5(9)  A
I’m trying
      E    ( G  A  D  E )
I’m trying
   D              A   
Evidence in the echoes 
         E   ( G  A  D  E )
Of your mind
  D            A   
Leads me to believe 
              E     E11  E
We missed the signs

E 
Can I try, one last time?
                      
Could all use a savior
                        A     A5(9)  A  A5(9)  A
From human behavior sometimes
                    E    ( G  A  D  E )
And the kids are alright
      D              A  
The Queen of Collections 
           E   ( G  A  D  E )
Took your time
   D              
Sadness comes ‘cause 
 A              E   E11  E
Some of it was mine
 
[Refrão]

G  E  A  D    E    E11  E
Comes then goes
G  E  A      E   ( E  G  A  D  E )
Comes then goes
Bm/F#  A   E    ( E  G  A  D  E )
Comes and goes
Bm/F#  A     E
Comes and goes
00:00 / 00:00
Outros vídeos desta música
Repetir
Outros vídeos desta música
Composição de Eddie Vedder
Colaboração e revisão:
  • Vitor Gabriel
885 exibições
    • ½ Tom
    • A
    • Bb
    • B
    • C
    • Db
    • D
    • Eb
    • E
    • F
    • F#
    • G
    • Ab
  • Adicionar à lista

    0 comentários

    Ver todos os comentários

    Conseguiu tocar?

    2 Tocaram 0 Ainda não

    Grave um vídeo tocando Comes Then Goes e nos envie!

    Entre para oCifra Club PRO

    Tenha acesso a benefícios exclusivos no App e no Site

    • Chega de anúncios

    • Prioridade de compra em lançamentos

    • Mais recursos no app do Afinador

    • Atendimento Prioritário

    • Descontos nos produtos Cifra Club

    • Ajude a produzir mais conteúdo

    00:00 / 00:00

    Cifra Club Pro

    Aproveite o Cifra Club com benefícios exclusivos e sem anúncios
    Cifra Club Pro
    Aproveite o Cifra Club com benefícios exclusivos e sem anúncios
    OK