Enviar cifraEntrar

I am Mine

Pearl Jam

Cifra: Principal
exibições 271.642
Tom: C
Riff:


E|---0---0--0---0--0--0-----0---0--0---0--0--0--0-|
B|---3---3--3---6--8--6-----5---5--5---6--5--1--3-|
G|---2---2--2---5--7--5-----4---4--4---5--4--0--2-|  2x
D|---0---0--0---0--0--0-----0---0--0---0--0--0--0-|
A|------------------------------------------------|
E|------------------------------------------------|


E|---0---0--0---0--0--0-----0---0--0---0--0--0--0-0-0-0|
B|---3---3--3---6--8--6-----5---5--5---5--5--5--2-2-2-2|
G|---2---2--2---5--7--5-----4---4--4---4--4--4--2-2-2-2|
D|---0---0--0---0--0--0-----0---0--0---0--0--0--2-2-2-2|
A|----------------------------------------------0-0-0-0|
E|-----------------------------------------------------|


Verso 1:

    D             F     C         G
The selfish, they're all standing in line
D         F           C              G
Faithing and hoping to buy themselves time,
D     F         C               G
Me, I figure as each breath goes by
  F       G      D D4 (alterne D e D4 ouça a música)
I only own my mind.

Verso 2:

    D           F              C           G
The north is to south what the clock is to time
D                        F               C           G
There's east and there's west and there's everywhere life
D            F         C              G
I know I was born and I know that I'll die
    F     G       D D4 D
The in between is mine
F G  D  (alterne D e D4 - ouça a música)
I am mine

Refrão:

       G            Am          D D4 D
And the meanings that get left behind
          G         Am           D D4 D
All their innocence lost at one time
      G     Am           D D4 D
Significant, between the lines
            C
There's no need to hide
We're safe tonight.

(Repete o riff)

Verso 3:

    D        F             C          G
The ocean is full cause everyone's crying
    D            F            C             G
The full moon is looking for friends at hightide
D                F               C          G
The sorrow grows bigger when the sorrow's denied
  F     G       D D4 D
I only know my mind
F G  D (alterne D e D4 - ouça a música)
I am mine

Refrão:

        G            Am        D D4 D
And the meanings that get left behind
        G         Am           D D4 D
All their innocence lost at one time
     G        Am          D D4 D
Significance, behind the eyes
           C
There's no need to hide
We're safe tonight

        G             Am          D D4 D
And the meanings that get left behind
        G         Am             D D4 D
All the feeling is broken with time
     G           Am          D D4 D
We're all different behind the eyes
           C
We may need to hide
        G             Am          D D4 D
And the meanings that get left behind
        G         Am           D D4 D
All their innocence lost at one time
    G        Am          D D4 D
Significance between the lines
          C
There's no need to hide

Solo:


E|--15----15----15----15------------------|----------------------------|
B|-----12----12----12----12/13--12--12--15|--15----------------15------|
G|----------------------------------------|------------12--14------12--|
D|----------------------------------------|----------------------------|
A|----------------------------------------|----------------------------|
E|----------------------------------------|----------------------------|


E|------------------15h14---------------|------14--------15--17--19----|
B|------15--13--12--------13-12---------|------------------------------|
G|--14--------------------------14b-14b-|------------------------------|
D|--------------------------------------|------------------------------|
A|--------------------------------------|------------------------------|
E|--------------------------------------|------------------------------|


E|--20-19-17--------------------------------|--------------------------|
B|-----------15h17h15h13/12/10--12--13--15--|--15b---15b---17b---15b---|
G|------------------------------------------|--------------------------|
D|------------------------------------------|--------------------------|
A|------------------------------------------|--------------------------|
E|------------------------------------------|--------------------------|


E|--------------------------|--------------------|--3---3---3---3---3--||
B|--15----13----12----10----|--8----7----8----8--|--3---3---3---3---3--||
G|--------------------------|--------------------|--0---0---0---0---0--||
D|--------------------------|--------------------|--0---0---0---0---0--||
A|--------------------------|--------------------|--2---2---2---2---2--||
E|--------------------------|--------------------|--3---3---3---3---3--||
  • 1
  • 2
  • 3
  • 4
  • 5
  • 6
  • 7
  • 8
  • 9
  • 10
  • 11
  • 12
    Acordes para:

      0 comentários

        mostrar mais comentários

        Conseguiu tocar?

        42tocaram0ainda não

        Grave um vídeo tocando I am Mine e mande pra gente!

        00:00 / 00:00
        outros vídeos desta música
        repetirqualidadeautomática
        • automática
        Outro vídeos desta música
          00:00 / 00:00
          automática
          • automática
          Acordes para:violão e guitarra
          dificuldadeexibiçõescontribuições
          2 versões de Tab de baixoexibiçõescontribuições
          fecharplay/pause subir/descer velocidade
            acordes
            fechar
            OK
            Feedback