Notificações Amigos pendentes

      Pearl Jam

      Jeremy

      372.693 exibições
      Tom: C
      Jeremy - Pearl Jam
      
      
      Legendas :
      H = hammer on
       = Harmonic
      pm = Palm mute
      
      -----------------------------------------------------------------------------------------------------------
      
      Intro:
      
      
      ----------------------|----------------------|--------------------|-----------------------------|
      ----------------------|----------------------|--------------------|-----------------------------|
      ----------------------|----<5>---------------|--------------------|---<7>-----------------------|
      ---------------7----5-|-----0--<5>-----------|-------------7----5-|----0--<7>-------------------|
      --0---5H7--0---0-0--0-|---------0------------|--0--5H7--0--0-0--0 |--------0--------------------|
      --0---0H0--0----------|----------------------|--0--0H0--0---------|-----------------------------|
      
      
      
                                                      pm pm pm pm
      
      
      ----------------------|----------------------|--------------------|
      ----------------------|----------------------|--------------------|
      ----------------------|----<7>-<5>--<7>------|--------------------|
      ---------------7----5-|----------<5>---<7>---|--55555555555-------|
      --0---5H7--0---0-0--0-|-----------------0----|--00000000000-------|
      --0---0H0--0----------|----------------------|--00000000000-------|
      
      
      ----------------------|
      ----------------------|
      ----------------------|
      ---------------7----5-|
      --0---5H7--0---0-0--0-|
      --0---0H0--0----------|
      
      
      
      
      Verse : (a lot of times)
      
      
      |--------------------------------------------------------------------|
      |--------------------------------------------------------------------|
      |--------------------------------------------------------------------|
      |-----------------7--5------------7---5-----------7-----------7--5---|
      |----0----5h7---0--0-----0---5h7-0--0----0--5h7-0---0-4--0-5h7-0---0-|
      |--------------------------------------------------------------------|
      
      
      |--------------------------------------------------------------------|
      |--------------------------------------------------------------------|
      |----------9-----7-------7---------------7-----9---------------------|
      |----------7--7--7-------5---------------7--7--7---------------------|
      |--0--5h7-----0------0--------------5h7-----0------------------------|
      |--------------------------------------------------------------------|
      
      
      Chorus:
      
      F  C  D  A - F   D  Em  A
      
      Rhythm: vv^^v vv ^^v vv^^v vv^^v
      
      Verse:
      Chorus
      Verse:
      
      
      End: F G A
      
      The end riff is played on a twelve-string bass, as many people pointed
      out.
      Here it's arranged for a six-string guitar.
      
      
      --------------------------I---------------------------I---------------
      ---------8-----------7----I---------3-----------5-----I---------------
      -------9----------7-----7-I-------4----------5-----5--I---------------
      --------------------------I---------------------------I---------------
      ---0----------0-----------I---0----------0------------I---------------
      --------------------------I---------------------------I---------------
      
      
      --------------------------I---------------------------I---------------
      ---------0-----------1----I--------0------------1-----I---------------
      -------0----------2-----2-I------0-----------2-----2--I---------------
      --------------------------I---------------------------I---------------
      ---0-----------0----------I---0----------0------------I---------------
      --------------------------I---------------------------I---------------
      
      
      
      Repeat the first three the second time through and end with:
      
                              H*      H*
      
      --------------------------------------I-------------------------------
      -------------1------------------------I-------------------------------
      --------2-----------------------5-----I-------------------------------
      ------------------------7-------------I-------------------------------
      ---0-------------0--------------------I-------------------------------
      --------------------------------------I-------------------------------
      
      
      Eddie San
                               harmonics
      
      ----------------------|----------------------|------------------|-----
      ----------------------|----------------------|------------------|-----
      ----------------------|------------5---------|------------------|-----
      ---------------7----5-|---5------------------|---------7---5----|-----
      --0---5H7--0-----0----|----------------------|--0--5H7--0----0--|-----
      ----------------------|----------------------|------------------|-----
      
      
         harmonics
      
      ----------------------|
      ----------------------|
      ----------------------|
      ---5------------------|
      -----------5----------|
      ----------------------|
      
      
      verse:
      
      
      |--------------------------------------------------------------------|
      |--------------------------------------------------------------------|
      |--------------------------------------------------------------------|
      |-----------------7--5------------7---5-----------7-----------7--5---|
      |----0----5h7---0--0-----0---5h7-0--0----0--5h7-0---0-4--0-5h7-0---0-|
      |--------------------------------------------------------------------|
      
      
      then...
      
      
      |--------------------------------------------------------------------|
      |--------------------------------------------------------------------|
      |----------9-----7-------7---------------7-----9---------------------|
      |----------7--7--7-------5---------------7--7--7---------------------|
      |--0--5h7-----0------0--------------5h7-----0------------------------|
      |--------------------------------------------------------------------|
      
      
      chorus:  F D E F A
                F D E C A
      
      verse
      chorus
      
      then...
      
      
      |--------------------------------------------------------------------|
      |--------------------------------------------------------------------|
      |--------------------------------------------------------------------|
      |-------------7-----5--------do this a ------------------------------|
      |---0-5h7--0----5h7--------------------bunch-of times----------------|
      |--------------------------------------------------------------------|
      
      
      end: F G A
      
      The end riff is played on a twelve-string bass, as many people pointed out.
      Here it's arranged for a six-string guitar.
      
      
      --------------------------I---------------------------I---------------
      ---------8-----------7----I---------3-----------5-----I---------------
      -------9----------7-----7-I-------4----------5-----5--I---------------
      --------------------------I---------------------------I---------------
      ---0----------0-----------I---0----------0------------I---------------
      --------------------------I---------------------------I---------------
      
      
      --------------------------I---------------------------I---------------
      ---------0-----------1----I--------0------------1-----I---------------
      -------0----------2-----2-I------0-----------2-----2--I---------------
      --------------------------I---------------------------I---------------
      ---0-----------0----------I---0----------0------------I---------------
      --------------------------I---------------------------I---------------
      
      
      
      Repeat the first three the second time through and end with:
      
      
      
      --------------------------------------I-------------------------------
      -------------1------------------------I-------------------------------
      --------2-----------------------<5>---I-------------------------------
      ------------------------<7>-----------I-------------------------------
      ---0-------------0--------------------I-------------------------------
      --------------------------------------I-------------------------------
      
        Composição: Eddie Vedder / Jeff AmentColaboração e revisão:
        • tiaagolino
        • blackholesundlr

        Comentários 20

        140 .
        • rodolfo rodolfo: Em 20/08/2015 14:08

          QUE TABLATURA DE MERDA, NÃO SERVE NEM PRA LIMPAR A BUNDA, SEU MERDA

        • Alexandre Alexandre: Em 23/04/2015 01:06

          Poxa, faz uma VIDEO AULA, musica EXCELENTE!

        • bianca bianca: Em 09/10/2014 15:02

          Cifra club toma vergonha na cara msm vei que isso vcs fazem video aula de jorge e matheus da vida mais n faz das musicas realmente important

        • Gabriel Gabriel: Em 07/05/2014 21:22

          cifra club toma vergonha e faz video aula dessa musica! vcs fazem video aula de qualquer luan santana ai mas não fazem dessa musica msm?

        • marimo_de_merda marimo_de_merda: Em 03/06/2013 07:55

          Vídeo aula!!!!

        • theusartori theusartori: Em 28/04/2013 15:37

          o refrão é F5, G5 e A5.. só que sem pestana se é que vocês me entendem. tipo, o Fá fica assim:E : ---B: -1-G: ---D: -3-A : -3-M : ---

        • theusartori theusartori: Em 28/04/2013 15:36

          o refrão é F5, G5 e A5... só que sem pestana se é que voces me entendem. tipo, o Fá fica assim:E : ---B: -1-G: ---D: -3-A : -3-M : ---

        • Gabriel Gabriel: Em 24/04/2013 19:16

          kero video aulaaaaa!!!!!!!

        • Gabriel Gabriel: Em 23/04/2013 21:33

          consigo tocar a intro a base da musica eu n tenho ideia de como toca =/

        • Gabriel Gabriel: Em 23/04/2013 21:31

          poxa eu consigo fazer o solo dessa musica tranquilo o negocio é a base que eu n sei de jeito nenhum como q faz =/

        140 cancelar

        conseguiu tocar?

        • •••

        covers

        Grave um vídeo tocando Jeremy e mande pra gente!

        Ex.: http://www.youtube.com/watch?v=0IvSvIwGdwk
        ver covers de outras músicas »
        0:00 / 0:00

        Capítulos

          2 versões de violão dificuldade exibições contribuição e correção
          2 versões de guitarra dificuldade exibições contribuição e correção
          2 versões de cavaco dificuldade exibições contribuição e correção
          2 versões de teclado dificuldade exibições contribuição e correção
          4 versões de baixo exibições contribuição e correção
          1 versão de bateria exibições contribuição e correção
          1 versão de gaita exibições contribuição e correção
          3 versões de Guitar Proformatodownloadscontribuição
          play/pausefechar subir/descer velocidade
          6ª corda E5ª corda A4ª corda D3ª corda G2ª corda B1ª corda E
            acordes
            publicidade
            fechar
            ok