Enviar cifraEntrar

Jeremy

Pearl Jam

Cifra: Principal
exibições 382.236
Tom: C
Jeremy - Pearl Jam


Legendas :
H = hammer on
 = Harmonic
pm = Palm mute

-----------------------------------------------------------------------------------------------------------

Intro:


----------------------|----------------------|--------------------|-----------------------------|
----------------------|----------------------|--------------------|-----------------------------|
----------------------|----<5>---------------|--------------------|---<7>-----------------------|
---------------7----5-|-----0--<5>-----------|-------------7----5-|----0--<7>-------------------|
--0---5H7--0---0-0--0-|---------0------------|--0--5H7--0--0-0--0 |--------0--------------------|
--0---0H0--0----------|----------------------|--0--0H0--0---------|-----------------------------|



                                                pm pm pm pm


----------------------|----------------------|--------------------|
----------------------|----------------------|--------------------|
----------------------|----<7>-<5>--<7>------|--------------------|
---------------7----5-|----------<5>---<7>---|--55555555555-------|
--0---5H7--0---0-0--0-|-----------------0----|--00000000000-------|
--0---0H0--0----------|----------------------|--00000000000-------|


----------------------|
----------------------|
----------------------|
---------------7----5-|
--0---5H7--0---0-0--0-|
--0---0H0--0----------|




Verse : (a lot of times)


|--------------------------------------------------------------------|
|--------------------------------------------------------------------|
|--------------------------------------------------------------------|
|-----------------7--5------------7---5-----------7-----------7--5---|
|----0----5h7---0--0-----0---5h7-0--0----0--5h7-0---0-4--0-5h7-0---0-|
|--------------------------------------------------------------------|


|--------------------------------------------------------------------|
|--------------------------------------------------------------------|
|----------9-----7-------7---------------7-----9---------------------|
|----------7--7--7-------5---------------7--7--7---------------------|
|--0--5h7-----0------0--------------5h7-----0------------------------|
|--------------------------------------------------------------------|


Chorus:

F  C  D  A - F   D  Em  A

Rhythm: vv^^v vv ^^v vv^^v vv^^v

Verse:
Chorus
Verse:


End: F G A

The end riff is played on a twelve-string bass, as many people pointed
out.
Here it's arranged for a six-string guitar.


--------------------------I---------------------------I---------------
---------8-----------7----I---------3-----------5-----I---------------
-------9----------7-----7-I-------4----------5-----5--I---------------
--------------------------I---------------------------I---------------
---0----------0-----------I---0----------0------------I---------------
--------------------------I---------------------------I---------------


--------------------------I---------------------------I---------------
---------0-----------1----I--------0------------1-----I---------------
-------0----------2-----2-I------0-----------2-----2--I---------------
--------------------------I---------------------------I---------------
---0-----------0----------I---0----------0------------I---------------
--------------------------I---------------------------I---------------



Repeat the first three the second time through and end with:

                        H*      H*

--------------------------------------I-------------------------------
-------------1------------------------I-------------------------------
--------2-----------------------5-----I-------------------------------
------------------------7-------------I-------------------------------
---0-------------0--------------------I-------------------------------
--------------------------------------I-------------------------------


Eddie San
                         harmonics

----------------------|----------------------|------------------|-----
----------------------|----------------------|------------------|-----
----------------------|------------5---------|------------------|-----
---------------7----5-|---5------------------|---------7---5----|-----
--0---5H7--0-----0----|----------------------|--0--5H7--0----0--|-----
----------------------|----------------------|------------------|-----


   harmonics

----------------------|
----------------------|
----------------------|
---5------------------|
-----------5----------|
----------------------|


verse:


|--------------------------------------------------------------------|
|--------------------------------------------------------------------|
|--------------------------------------------------------------------|
|-----------------7--5------------7---5-----------7-----------7--5---|
|----0----5h7---0--0-----0---5h7-0--0----0--5h7-0---0-4--0-5h7-0---0-|
|--------------------------------------------------------------------|


then...


|--------------------------------------------------------------------|
|--------------------------------------------------------------------|
|----------9-----7-------7---------------7-----9---------------------|
|----------7--7--7-------5---------------7--7--7---------------------|
|--0--5h7-----0------0--------------5h7-----0------------------------|
|--------------------------------------------------------------------|


chorus:  F D E F A
          F D E C A

verse
chorus

then...


|--------------------------------------------------------------------|
|--------------------------------------------------------------------|
|--------------------------------------------------------------------|
|-------------7-----5--------do this a ------------------------------|
|---0-5h7--0----5h7--------------------bunch-of times----------------|
|--------------------------------------------------------------------|


end: F G A

The end riff is played on a twelve-string bass, as many people pointed out.
Here it's arranged for a six-string guitar.


--------------------------I---------------------------I---------------
---------8-----------7----I---------3-----------5-----I---------------
-------9----------7-----7-I-------4----------5-----5--I---------------
--------------------------I---------------------------I---------------
---0----------0-----------I---0----------0------------I---------------
--------------------------I---------------------------I---------------


--------------------------I---------------------------I---------------
---------0-----------1----I--------0------------1-----I---------------
-------0----------2-----2-I------0-----------2-----2--I---------------
--------------------------I---------------------------I---------------
---0-----------0----------I---0----------0------------I---------------
--------------------------I---------------------------I---------------



Repeat the first three the second time through and end with:



--------------------------------------I-------------------------------
-------------1------------------------I-------------------------------
--------2-----------------------<5>---I-------------------------------
------------------------<7>-----------I-------------------------------
---0-------------0--------------------I-------------------------------
--------------------------------------I-------------------------------
  • 1
  • 2
  • 3
  • 4
  • 5
  • 6
  • 7
  • 8
  • 9
  • 10
  • 11
  • 12
    Acordes para:
      Composição: Eddie Vedder / Jeff AmentColaboração e revisão:
      • tiaagolino
      • blackholesundlr

      0 comentários

        mostrar mais comentários

        Conseguiu tocar?

        21tocaram1ainda não

        Grave um vídeo tocando Jeremy e mande pra gente!

        00:00 / 00:00
        outros vídeos desta música
        repetirqualidadeautomática
        • automática
        Outro vídeos desta música
          00:00 / 00:00
          automática
          • automática
          Acordes para:violão e guitarra
          dificuldadeexibiçõescontribuições
          1 versão de Tab de bateriaexibiçõescontribuições
          1 versão de Tab de gaitaexibiçõescontribuições
          3 versões de Guitar Proformatodownloadscontribuição
          fecharplay/pause subir/descer velocidade
            acordes
            fechar
            OK
            Feedback