Cifra Club

Jeremy

Pearl Jam

Cifra: Principal (violão e guitarra)
exibições 451.895
Tom: C
[Introdução]

(Guitarra Base – 4x)
E|-----------------------------------------------------|
B|-----------------------------------------------------|
G|-----------------------------------------------------|
D|------------7-------5--------------------------------|
A|-0--5h7--0-------0-----------------------------------|
E|-----------------------------------------------------|

(Violão)

(Parte 1 de 3)
  H.N    .
E|-----------------------------------------------------|
B|-----------------------------------------------------|
G|-7----12---------------------------------------------|
D|-----------------------------------------------------|
A|-----------------------------------------------------|
E|-----------------------------------------------------|

(Parte 2 de 3)
  H.N    .
E|-----------------------------------------------------|
B|-----------------------------------------------------|
G|-7---------------------------------------------------|
D|-------7---------------------------------------------|
A|-----------------------------------------------------|
E|-----------------------------------------------------|

(Parte 3 de 3)
  H.N    .     .
E|-----------------------------------------------------|
B|-----------------------------------------------------|
G|-7---------------------------------------------------|
D|-------5---------------------------------------------|
A|-------------5---------------------------------------|
E|-----------------------------------------------------|


[Primeira Parte]

(Guitarra Base)

(Parte 1 de 4)
E|-----------------------------------------------------|
B|-----------------------------------------------------|
G|-----------------------------------------------------|
D|------------7-------5--------------------------------|
A|-0--5h7--0--0----0--0--------------------------------|
E|-----------------------------------------------------|

(Parte 2 de 4)
E|-----------------------------------------------------|
B|-----------------------------------------------------|
G|--------------------6--------------------------------|
D|------------7-------7--------------------------------|
A|-0--5h7--0--0----0--0--------------------------------|
E|-----------------------------------------------------|

(Parte 3 de 4)
E|-----------------------------------------------------|
B|-----------------------------------------------------|
G|-----------------------------------------------------|
D|------------7-------5--------------------------------|
A|-0--5h7--0--0----0--0--------------------------------|
E|-----------------------------------------------------|

(Parte 4 de 4)
E|-----------------------------------------------------|
B|-----------------------------------------------------|
G|--------------------6--------------------------------|
D|------------7-------7--------------------------------|
A|-0--5h7--0--0----0--0--------------------------------|
E|-----------------------------------------------------|

At home, drawing pictures
Of mountain tops
With him on top
Lemon yellow Sun
Arms raised in a V
The dead lay
In pools of brown below


[Segunda Parte]

(Guitarra Base)

(Parte 1 de 4)
E|-----------------------------------------------------|
B|-----------------------------------------------------|
G|------------9-------7---------7----------------------|
D|------------7-------5---------4----------------------|
A|-0--5h7--0-------0-----------------------------------|
E|-----------------------------------------------------|

(Parte 2 de 4)
E|-----------------------------------------------------|
B|-----------------------------------------------------|
G|------------7-------9--------------------------------|
D|------------4-------7--------------------------------|
A|-0--5h7--0-------0-----------------------------------|
E|-----------------------------------------------------|

(Parte 3 de 4)
E|-----------------------------------------------------|
B|-----------------------------------------------------|
G|------------9-------7---------7----------------------|
D|------------7-------5---------4----------------------|
A|-0--5h7--0-------0-----------------------------------|
E|-----------------------------------------------------|

(Parte 4 de 4)
E|-----------------------------------------------------|
B|-----------------------------------------------------|
G|------------7-------9--------------------------------|
D|------------4-------7--------------------------------|
A|-0--5h7--0-------0-----------------------------------|
E|-----------------------------------------------------|


(Guitarra Riff)

(Parte 1 de 4)
E|-----------------------------------------------------|
B|-----------------------------------------------------|
G|--------------14--------12--------11-----------------|
D|--------------14--------12--------12-----------------|
A|-0---------0--12-----0--10----x-x--9-----------------|
E|----10h12---------------------x-x--------------------|

(Parte 2 de 4)
E|--------------------------------------------12-------|
B|--------------------------------12h14p12-------12----|
G|--------------11--------14---------------14-------12-|
D|--------------12--------14---------------------------|
A|-0---------0---9-----0--12----0----------------------|
E|----10h12--------------------------------------------|

(Parte 3 de 4)
E|-----------------------------------------------------|
B|-----------------------------------------------------|
G|--------------14--------12--------11-----------------|
D|--------------14--------12--------12-----------------|
A|--------------12-----0--10----x-x--9-----------------|
E|------------------------------x-x--------------------|

(Parte 4 de 4)
E|--------------------------------------------12-------|
B|--------------------------------12h14p12-------12----|
G|--------------11--------14---------------14-------12-|
D|--------------12--------14---------------------------|
A|-0---------0---9-----0--12----0----------------------|
E|----10h12--------------------------------------------|

Daddy didn't give attention
To the fact that mommy didn't care
King Jeremy, the wicked
Oh, ruled his world


[Primeiro Refrão]

(Guitarra Base)

(Parte 1 de 2)
                F7M                         A
E|-----------------------------------------------------|
B|-----------------------------------------------------|
G|------------12\10----10\--2--4--5--2----2------------|
D|--------------------------2--------2----2------------|
A|-0--5h7--0--10\-8-----8\--0--2--3--0----0------------|
E|-----------------------------------------------------|

(Parte 2 de 2)
                F7M                         A
E|-----------------------------------------------------|
B|-----------------------------------------------------|
G|------------12\10----10\--2--4--5--2----2------------|
D|--------------------------2--------2----2------------|
A|-0--5h7--0--10\-8-----8\--0--2--3--0----0------------|
E|-----------------------------------------------------|


(Guitarra Riff)

(Parte 1 de 2)
     F7M
E|-12--------12-----------12---------------------------|
B|-12h13---------13-------13---------------------------|
G|-14---------------14----14---------------------------|
D|-15-----15--------------15---------------------------|
A|-----------------------------------------------------|
E|-----------------------------------------------------|

     A
E|---------------12------------------------12----------|
B|---12h14p12-------12---------12h14p12-------12-------|
G|------------14-------14---------------14-------14----|
D|-----------------------------------------------------|
A|-0-------------------------0-------------------------|
E|-----------------------------------------------------|

(Parte 2 de 2)
     F7M
E|-12--------12-----------12--------12-----------------|
B|-12h13---------13-------13h13---------13-------------|
G|-14---------------14----14---------------14----------|
D|-15-----15--------------15-----15--------------------|
A|-----------------------------------------------------|
E|-----------------------------------------------------|

     A
E|---------------12------------------------------------|
B|---12h14p12-------12---------------------------------|
G|------------14-------14------------------------------|
D|-----------------------------------------------------|
A|-0-------------------------0-------------------------|
E|-----------------------------------------------------|

 F7M            D5
Jeremy spoke in
  Em7  C9     A
Cla____ass today
 F7M            D5
Jeremy spoke in
  Em7  C9     A
Cla____ass today


[Terceira Parte]

(Guitarra Base)

(Parte 1 de 8)
E|-----------------------------------------------------|
B|-----------------------------------------------------|
G|-----------------------------------------------------|
D|------------7-------5--------------------------------|
A|-0--5h7--0-------0-----------------------------------|
E|-----------------------------------------------------|

(Parte 2 de 8)
E|-----------------------------------------------------|
B|-----------------------------------------------------|
G|--------------------6--------------------------------|
D|------------7-------7--------------------------------|
A|-0--5h7--0-------0--0--------------------------------|
E|-----------------------------------------------------|

(Parte 3 de 8)
E|-----------------------------------------------------|
B|-----------------------------------------------------|
G|-----------------------------------------------------|
D|------------7-------5--------------------------------|
A|-0--5h7--0-------0-----------------------------------|
E|-----------------------------------------------------|

(Parte 4 de 8)
E|-----------------------------------------------------|
B|-----------------------------------------------------|
G|--------------------6--------------------------------|
D|------------7-------7--------------------------------|
A|-0--5h7--0-------0--0--------------------------------|
E|-----------------------------------------------------|

(Parte 5 de 8)
E|-----------------------------------------------------|
B|-----------------------------------------------------|
G|-----------------------------------------------------|
D|------------7-------5--------------------------------|
A|-0--5h7--0-------0-----------------------------------|
E|-----------------------------------------------------|

(Parte 6 de 8)
E|-----------------------------------------------------|
B|-----------------------------------------------------|
G|--------------------6--------------------------------|
D|------------7-------7--------------------------------|
A|-0--5h7--0-------0--0--------------------------------|
E|-----------------------------------------------------|

(Parte 7 de 8)
E|-----------------------------------------------------|
B|-----------------------------------------------------|
G|-----------------------------------------------------|
D|------------7-------5--------------------------------|
A|-0--5h7--0-------0-----------------------------------|
E|-----------------------------------------------------|

(Parte 8 de 8)
E|-----------------------------------------------------|
B|-----------------------------------------------------|
G|--------------------6--------------------------------|
D|------------7-------7--------------------------------|
A|-0--5h7--0-------0--0--------------------------------|
E|-----------------------------------------------------|


(Guitarra Riff)

(Parte 1 de 8)
E|------------------------3----------------------------|
B|------------------------3----------------------------|
G|------------------------4----------------------------|
D|------------7-------5---5----------------------------|
A|-0--5h7--0-------0-----------------------------------|
E|-----------------------------------------------------|

(Parte 2 de 8)
E|-----------------------7p5---------5-----------------|
B|--------------------5-------5----5-------------------|
G|--------------------6---------6----------------------|
D|------------7-------7--------------------------------|
A|-0--5h7--0-------0--0--------------------------------|
E|-----------------------------------------------------|

(Parte 3 de 8)
                          H.N .  .
E|-----------------------------------------------------|
B|------------------------------12---------------------|
G|---------------------------12------------------------|
D|------------7-------5---12---------------------------|
A|-0--5h7--0-------0-----------------------------------|
E|-----------------------------------------------------|

(Parte 4 de 8)
E|-----------------------7p5---7p5---7p5---------------|
B|--------------------5------5-----5-----5-------------|
G|--------------------6--------------------------------|
D|------------7-------7--------------------------------|
A|-0--5h7--0-------0--0--------------------------------|
E|-----------------------------------------------------|

(Parte 5 de 8)
E|------------------------3-5-3------------------------|
B|------------------------3----------------------------|
G|------------------------4----------------------------|
D|------------7-------5---5----------------------------|
A|-0--5h7--0-------0-----------------------------------|
E|-----------------------------------------------------|

(Parte 6 de 8)
E|-----------------------------------------------------|
B|--------------------5---5----5-5-5-5-----------------|
G|--------------------6---6h7--7-7-7-6-----------------|
D|------------7-------7---7----7-7-7-7-----------------|
A|-0--5h7--0-------0--0---0----0-0-0-0-----------------|
E|-----------------------------------------------------|

(Parte 7 de 8)
E|------------------------3----------------------------|
B|------------------------3----------------------------|
G|------------------------4----------------------------|
D|------------7-------5---5----------------------------|
A|-0--5h7--0-------0-----------------------------------|
E|-----------------------------------------------------|

(Parte 8 de 8)
E|-----------------------------------------------------|
B|--------------------5---5----5-5-5-5-----------------|
G|--------------------6---6h7--7-7-7-6-----------------|
D|------------7-------7---7----7-7-7-7-----------------|
A|-0--5h7--0-------0--0---0----0-0-0-0-----------------|
E|-----------------------------------------------------|

Clearly I remember
Picking on the boy
Seemed a harmless little fuck
Oh, but we unleashed a lion
Gnashed his teeth
And bit the recess lady's breast
How could I forget?
And he hit me
With a surprise left
My jaw left hurting
Oh, dropped wide open
Just like the day
Oh, like the day I heard


[Quarta Parte]

(Guitarra Base)

(Parte 1 de 4)
E|-----------------------------------------------------|
B|-----------------------------------------------------|
G|------------9-------7---------7----------------------|
D|------------7-------5---------4----------------------|
A|-0--5h7--0-------0-----------------------------------|
E|-----------------------------------------------------|

(Parte 2 de 4)
E|-----------------------------------------------------|
B|-----------------------------------------------------|
G|------------7-------9--------------------------------|
D|------------4-------7--------------------------------|
A|-0--5h7--0-------0-----------------------------------|
E|-----------------------------------------------------|

(Parte 3 de 4)
E|-----------------------------------------------------|
B|-----------------------------------------------------|
G|------------9-------7---------7----------------------|
D|------------7-------5---------4----------------------|
A|-0--5h7--0-------0-----------------------------------|
E|-----------------------------------------------------|

(Parte 4 de 4)
E|-----------------------------------------------------|
B|-----------------------------------------------------|
G|------------7-------9--------------------------------|
D|------------4-------7--------------------------------|
A|-0--5h7--0-------0-----------------------------------|
E|-----------------------------------------------------|


(Guitarra Riff)

(Parte 1 de 4)
E|-----------------------------------------------------|
B|-----------------------------------------------------|
G|--------------14--------12--------11-----------------|
D|--------------14--------12--------12-----------------|
A|-0---------0--12-----0--10----x-x--9-----------------|
E|----10h12---------------------x-x--------------------|

(Parte 2 de 4)
E|--------------------------------------------12-------|
B|--------------------------------12h14p12-------12----|
G|--------------11--------14---------------14-------12-|
D|--------------12--------14---------------------------|
A|-0---------0---9-----0--12----0----------------------|
E|----10h12--------------------------------------------|

(Parte 3 de 4)
E|-----------------------------------------------------|
B|-----------------------------------------------------|
G|--------------14--------12--------11-----------------|
D|--------------14--------12--------12-----------------|
A|--------------12-----0--10----x-x--9-----------------|
E|------------------------------x-x--------------------|

(Parte 4 de 4)
E|--------------------------------------------12-------|
B|--------------------------------12h14p12-------12----|
G|--------------11--------14---------------14-------12-|
D|--------------12--------14---------------------------|
A|-0---------0---9-----0--12----0----------------------|
E|----10h12--------------------------------------------|

Daddy didn't give affection, no
And the boy
Was something
That mommy wouldn't wear
King Jeremy, the wicked
Oh, ruled his world


[Segundo Refrão]

(Guitarra Base)

(Parte 1 de 3)
                F7M                         A
E|-----------------------------------------------------|
B|-----------------------------------------------------|
G|------------12\10----10\--2--4--5--2----2------------|
D|--------------------------2--------2----2------------|
A|-0--5h7--0--10\-8-----8\--0--2--3--0----0------------|
E|-----------------------------------------------------|

(Parte 2 de 3)
                F7M                         A
E|-----------------------------------------------------|
B|-----------------------------------------------------|
G|------------10\12----12\--2--4--5--2----2------------|
D|--------------------------2--------2----2------------|
A|-0--5h7--0---8\10----10\--0--2--3--0----0------------|
E|-----------------------------------------------------|

(Parte 3 de 3)
                F7M                         A
E|-----------------------------------------------------|
B|-----------------------------------------------------|
G|------------12\10----10\--2--4--5--2----2------------|
D|--------------------------2--------2----2------------|
A|-0--5h7--0--10\-8-----8\--0--2--3--0----0------------|
E|-----------------------------------------------------|


(Guitarra Riff)

(Parte 1 de 3)
     F7M
E|-12--------12-----------------12---------------------|
B|-12h13---------13-----------------13-----------------|
G|-14-----14--------14-----------------14--------------|
D|-15------------------15----15------------------------|
A|-----------------------------------------------------|
E|-----------------------------------------------------|

     A
E|---------------12------------------------12----------|
B|---12h14p12-------12---------12h14p12-------12-------|
G|------------14-------14---------------14-------14----|
D|-----------------------------------------------------|
A|-0-------------------------0-------------------------|
E|-----------------------------------------------------|

(Parte 2 de 3)
     F7M
E|-12--------12-----------12---12---12-----------------|
B|-12h13---------13-------13---13---13-----------------|
G|-14---------------14----14---14---14-----------------|
D|-15-----15--------------15---15---15-----------------|
A|-----------------------------------------------------|
E|-----------------------------------------------------|

     A
E|---------------12------------------------12----------|
B|---12h14p12-------12---------12h14p12-------12-------|
G|------------14-------14---------------14-------14----|
D|-----------------------------------------------------|
A|-0-------------------------0-------------------------|
E|-----------------------------------------------------|

(Parte 3 de 3)
     F7M
E|-12--------0---------------------0-------------------|
B|-12h13--------13--------------13----13---------------|
G|-14-----14-------14--------14----------14------------|
D|-15---------------------15---------------------------|
A|-----------------------------------------------------|
E|-----------------------------------------------------|

     A
E|---------------12------------------------12----------|
B|---12h14p12-------12---------12h14p12-------12-------|
G|------------14-------14---------------14-------14----|
D|-----------------------------------------------------|
A|-0-------------------------0-------------------------|
E|-----------------------------------------------------|

 F7M            D5
Jeremy spoke in
  Em7  C9     A
Cla____ass today
 F7M            D5
Jeremy spoke in
  Em7  C9     A
Cla____ass today
 F7M            D5
Jeremy spoke in
  Em7  C9     A
Cla____ass today


[Interlúdio]

E|-----------------------------------------------------|
B|-----------------------------------------------------|
G|-----------------------------------------------------|
D|------------7~----5~--------------7--------5---------|
A|-0--5h7--0-----0-------0--5h7--0-----0-5h7-----------|
E|-----------------------------------------------------|

E|-----------------------------------------------------|
B|-----------------------------------------------------|
G|-----------------------------------------------------|
D|------------7~----5~--------------7--------5---------|
A|-0--5h7--0-----0-------0--5h7--0-----0-5h7-----------|
E|-----------------------------------------------------|

E|-----------------------------------------------------|
B|-----------------------------------------------------|
G|-----------------------------------------------------|
D|------------7~----5~--------------7--------5---------|
A|-0--5h7--0-----0-------0--5h7--0-----0-5h7-----------|
E|-----------------------------------------------------|

E|-----------------------------------------------------|
B|-----------------------------------------------------|
G|-----------------------------------------------------|
D|------------7~----5~--------------7\--2-2-2-2-2-2-2--|
A|-0--5h7--0-----0-------0--5h7--0------0-0-0-0-0-0-0--|
E|-----------------------------------------------------|

Try to forget this
Try to erase this


[Terceiro Refrão]

(Guitarra Base)

(Parte 1 de 4)
                F7M                         A
E|-----------------------------------------------------|
B|-----------------------------------------------------|
G|------------12\10----10\--2--4--5--2----2------------|
D|--------------------------2--------2----2------------|
A|-0--5h7--0--10\-8-----8\--0--2--3--0----0------------|
E|-----------------------------------------------------|

(Parte 2 de 4)
                F7M                         A
E|-----------------------------------------------------|
B|-----------------------------------------------------|
G|------------10\12----12\--2--4--5--2----2------------|
D|--------------------------2--------2----2------------|
A|-0--5h7--0---8\10----10\--0--2--3--0----0------------|
E|-----------------------------------------------------|

(Parte 3 de 4)
                F7M                         A
E|-----------------------------------------------------|
B|-----------------------------------------------------|
G|------------12\10----10\--2--4--5--2----2------------|
D|--------------------------2--------2----2------------|
A|-0--5h7--0--10\-8-----8\--0--2--3--0----0------------|
E|-----------------------------------------------------|

(Parte 4 de 4)
                F7M                         A
E|-----------------------------------------------------|
B|-----------------------------------------------------|
G|------------12\10----10\--2--4--5--2----2------------|
D|--------------------------2--------2----2------------|
A|-0--5h7--0--10\-8-----8\--0--2--3--0----0------------|
E|-----------------------------------------------------|


(Guitarra Riff)

(Parte 1 de 4)
     F7M
E|-12--------12----------------------------------------|
B|-12h13---------13------------------------------------|
G|-14-----14--------14---------------------------------|
D|-15--------------------------------------------------|
A|-----------------------------------------------------|
E|-----------------------------------------------------|

     A
E|-12---------------------12------------12-------------|
B|-13---------------------13------------13-------------|
G|-14---------------------14------------14-------------|
D|-15---------------------15------------15-------------|
A|-----------------------------------------------------|
E|-----------------------------------------------------|

(Parte 2 de 4)
     F7M
E|-12--------12-----------12------------12-------------|
B|-12h13---------13-------13------------12-------------|
G|-14-----14--------14----14------------14-------------|
D|-15---------------------15------------15-------------|
A|-----------------------------------------------------|
E|-----------------------------------------------------|

     A
E|---------------12------------------------12----------|
B|---12h14p12-------12---------12h14p12-------12-------|
G|------------14-------14---------------14-------14----|
D|-----------------------------------------------------|
A|-0-------------------------0-------------------------|
E|-----------------------------------------------------|

(Parte 3 de 4)
     F7M
E|-12--------12-------------12---12-12-12--------------|
B|-12h13---------13---------13---13-13-13--------------|
G|-14-----14--------14------14---14-14-14--------------|
D|-15-----15----------------15---15-15-15--------------|
A|-----------------------------------------------------|
E|-----------------------------------------------------|

     A
E|-12-12-12-12-12-12-12-12-----------------------------|
B|-13-13-13-13-13-13-13-13-----------------------------|
G|-14-14-14-14-14-14-14-14-----------------------------|
D|-15-15-15-15-15-15-15-15-----------------------------|
A|-----------------------------------------------------|
E|-----------------------------------------------------|

(Parte 4 de 4)
     F7M
E|-12-12-12-12-12-12-12-12-12-12-12-12-12-12-12-12-----|
B|-13-13-13-13-13-13-13-13-13-13-13-13-13-13-13-13-----|
G|-14-14-14-14-14-14-14-14-14-14-14-14-14-14-14-14-----|
D|-15-15-15-15-15-15-15-15-15-15-15-15-15-15-15-15-----|
A|-----------------------------------------------------|
E|-----------------------------------------------------|

     A
E|-12-12-12-12-12-12-12-12-12-12-12-12-12-12-12-12-----|
B|-13-13-13-13-13-13-13-13-13-13-13-13-13-13-13-13-----|
G|-14-14-14-14-14-14-14-14-14-14-14-14-14-14-14-14-----|
D|-15-15-15-15-15-15-15-15-15-15-15-15-15-15-15-15-----|
A|-----------------------------------------------------|
E|-----------------------------------------------------|

               F7M  D5  Em7  C9
From the blackboard

( A  A/B  A/C  D5 )

 F7M            D5
Jeremy spoke in
  Em7  C9     A
Cla____ass today
 F7M            D5
Jeremy spoke in
  Em7  C9     A
Cla____ass today
 F7M            D5
Jeremy spoke in
  Em7     C9
Spoke  in
 A
Jeremy spoke in, spoke in


Final 1:

(Guitarra Base – Até o final)
E|-----------------------------------------------------|
B|-----------------------------------------------------|
G|------------12\10----10\--2--4--5--2----2------------|
D|--------------------------2--------2----2------------|
A|-0--5h7--0--10\-8-----8\--0--2--3--0----0------------|
E|-----------------------------------------------------|


(Guitarra Riff – Até o final)
E|-12-12-12-12-12-12-12-12-----------------------------|
B|-13-13-13-13-13-13-13-13-----------------------------|
G|-14-14-14-14-14-14-14-14-----------------------------|
D|-15-15-15-15-15-15-15-15-----------------------------|
A|-----------------------------------------------------|
E|-----------------------------------------------------|

(Guitarra Riff 2 – Até o Final)
E|-----------------------------------------------------|
B|-----------------------------------------------------|
G|-14-14-14-16-16-16-17\--14-14-14-16-16-16-17\--2-----|
D|-----------------------------------------------2-----|
A|-12-12-12-14-14-14-15\--12-12-12-14-14-14-15\--0-----|
E|-----------------------------------------------------|


Final 2:

E|-----------------------------------------------------|
B|-----------------------------------------------------|
G|------12-------11--------7-------9--------4------5---|
D|---14-------12----12---9------10---10---5------7---7-|
A|-0-------0-----------0-----0----------0-----0--------|
E|-----------------------------------------------------|

E|-----------------------------------------------------|
B|-----------------------------------------------------|
G|-----4------5----------------------------------------|
D|---5------7---7--------------------------------------|
A|-0-----0---------------------------------------------|
E|-----------------------------------------------------|

E|-----------------------------------------------------|
B|-----------------------------------------------------|
G|------12-------11--------7-------9--------4------5---|
D|---14-------12----12---9------10---10---5------7---7-|
A|-0-------0-----------0-----0----------0-----0--------|
E|-----------------------------------------------------|

           H.N .
E|-----------------------------------------------------|
B|-----------------------------------------------------|
G|-----4-------5---------------------------------------|
D|---5------7------------------------------------------|
A|-0-----0---------------------------------------------|
E|-----------------------------------------------------|
Acordes para:

    0 comentários

      mostrar mais comentários

      Conseguiu tocar?

      29tocaram4ainda não

      Grave um vídeo tocando Jeremy e mande pra gente!

      00:00 / 00:00
      outros vídeos desta música
      repetirqualidadeAutomático
      Outro vídeos desta música
        00:00 / 00:00
        OK