Cifra Club

Hoje Não

Pedro Valença

Cifra: Principal (violão e guitarra)
Selo Cifra Club: esta cifra foi revisada para atender aos critérios oficiais da nossa Equipe de Qualidade.
tom: Ab (forma dos acordes no tom de G) Capotraste na 1ª casa
[Intro]  G  Em  G  Em

E|------------------------------------------------------|
B|------------------------------------------------------|
G|------------------------------------------------------|
D|------------------------------------------------------|
A|----2-2-2-----2-2-2-----2-2-2------2-----2------------|
E|-3----------3--------3----------------2------0--------|

E|------------------------------------------------------|
B|------------------------------------------------------|
G|------------------------------------------------------|
D|------------------------------------------------------|
A|----2-2-2-----2-2-2-----2-2-2-------------------------|
E|-----------0--------0---------0-------2------3--------|

E|------------------------------------------------------|
B|------------------------------------------------------|
G|------------------------------------------------------|
D|------------------------------------------------------|
A|----2-2-2-----2-2-2-----2-2-2------2-----2------------|
E|-3----------3--------3----------------2------0--------|

E|------------------------------------------------------|
B|------------------------------------------------------|
G|------------------------------------------------------|
D|------------------------------------------------------|
A|----2-2-2-----2-2-2-----2-2-2-------------------------|
E|-----------0--------0---------0-------2------0--------|

   G                                              Em
Hoje eu não vou pedir que dê aos meus problemas solução
                                C   Am
Não quero insistir que cures minha dor
   C           D/F#          G
Eu venho hoje só para te ouvir
 G                       Em
Não quero todo o ouro em minhas mãos
                             C      Am
Nem todas as respostas quero eu saber
  C            D/F#
Eu venho agradecer

C                  Am7
Tu já fizeste muito mais que o necessário
               G           Em
Pra me ver sorrir, pra me ver feliz
C                      Am                          C
 Se cada dia tem o seu próprio mal, Tu és minha alegria(Oh, oh...)
           D/F#
Todas as manhãs. (manhãs)

      G
Eu vou cantar (eu vou cantar)
                            Em
Cantar do Teu amor me faz tão bem
                               C
Se alguém puder me ouvir irá saber
         Am                G
Sou feliz, porque eu sou Teu
                            Em
Está no meu sorriso em meu olhar
                                C
É algo que eu não sei mais esconder
 Am                          D/F#
Só vejo mais razões pra agradecer
                        G
A Tua graça basta para mim

Em
Oh... Eh.. eh

   G                                              Em
Hoje eu não vou pedir que leve embora as nuvens e traga o sol

(Se esse é o Teu querer)
                         C            Am
Se esse é o Teu querer pode deixar chover
       C                G
Derrame Tuas bênçãos sobre nós
 G                 Em
Conheço as Tuas obras de amor
                       C            Am
A Tua mão se estende apenas para o bem
         C       D/F#
Só por amor a alguém

  C                         Am7
Tu já fizeste muito mais que o necessário
             G           Em
Pra me ver sorrir, pra me ver feliz
C                      Am                    C
Pode chover, pode sair o sol Tu és minha alegria
           D/F#
Todas as manhãs

G
 Eu vou cantar (eu vou cantar)
                            Em
Cantar do Teu amor me faz tão bem
                               C
Se alguém puder me ouvir irá saber
         Am                G
Sou feliz, porque eu sou Teu
                    Em
Está no meu sorriso em meu olhar
                                C
É algo que eu não sei mais esconder
 Am                         D/F#
Só vejo mais razões pra agradecer
                        C    Am
A Tua graça basta para mim

Em        G
Oh... Eh.. eh...

G                               Em
Hoje eu não vou pedir (hoje não)
                   G
Eu venho hoje agradecer
Outros vídeos desta música
53.212 exibições
    • ½ Tom
    • A
    • Bb
    • B
    • C
    • Db
    • D
    • Eb
    • E
    • F
    • F#
    • G
    • Ab
  • Adicionar à lista

Afinação da cifra

Afinador online

    0 comentários

    Ver todos os comentários

    Entre para o Cifra Club PRO

    Tenha acesso a benefícios exclusivos no App e no Site

    • Chega de anúncios

    • Mais recursos no app do Afinador

    • Atendimento Prioritário

    • Aumente seu limite de lista

    • Ajude a produzir mais conteúdo

    Cifra Club Pro

    Aproveite o Cifra Club com benefícios exclusivos e sem anúncios
    Cifra Club Pro
    Aproveite o Cifra Club com benefícios exclusivos e sem anúncios
    OK