Cifra Club

The Wishing Well

Pendragon

Cifra: Principal (violão e guitarra)
Selo Cifra Club: esta cifra foi revisada para atender aos critérios oficiais da nossa Equipe de Qualidade.
tom: Em
[Intro]
  [Cmaj7]
E|---------0---------------0---------------2---------------2--------|
B|-------0---0---0-------0---0---0-------0---0---0-------0---0---0--|
G|-----0-------0-------0-------0-------0-------0-------0-------0----|
D|---2---------------2---------------1---------------1--------------|
A|-3---------------3---------------2---------------2----------------|
E|------------------------------------------------------------------|

                                                    {downstrum)
E|----------0--------------0---------------0--------0---------------|
B|--------0---0---0-------0--0---0-------0---0---0--0---------------|
G|------0-------0-------0------0-------0-------0----0---------------|
D|----2---------------0--------------1--------------2---------------|
A|--2---------------2--------------2----------------2---------------|
E|--------------------------------------------------0---------------| 
Outros vídeos desta música
    40 exibições
      • ½ Tom
      • Am
      • Bbm
      • Bm
      • Cm
      • C#m
      • Dm
      • Ebm
      • Em
      • Fm
      • F#m
      • Gm
      • G#m
    • Adicionar à lista

    Afinação da cifra

    Afinador online

      0 comentários

      Ver todos os comentários

      Entre para o Cifra Club PRO

      Tenha acesso a benefícios exclusivos no App e no Site

      • Chega de anúncios

      • Mais recursos no app do Afinador

      • Atendimento Prioritário

      • Aumente seu limite de lista

      • Ajude a produzir mais conteúdo

      Cifra Club Pro

      Aproveite o Cifra Club com benefícios exclusivos e sem anúncios
      Cifra Club Pro
      Aproveite o Cifra Club com benefícios exclusivos e sem anúncios
      OK