Cifra Club

Review Your Choices

Pentagram (USA)

Cifra: Principal (violão e guitarra)
Selo Cifra Club: esta cifra foi revisada para atender aos critérios oficiais da nossa Equipe de Qualidade.
tom: Gm
E|---------------------------------------------------------------|
B|---------------------------------------------------------------|
G|---------------------------------------------------------------|
D|--------3-5----/13-12~-----------------------------------------|
A|---3-5---------------------------------------------------------|
E|---------------------------------------------------------------| x4

E|---------------------------------------------------------------|
B|---------------------------------------------------------------|
G|---7---7-------------------------------------------------------|
D|---7---7---3---3---2---2---5---5-------------------------------|
A|---5---5---3---3---2---2---5---5-------------------------------|
E|-----------1---1---0---0---3---3-------------------------------| x3

E|---------------------------------------------------------------|
B|---------------------------------------------------------------|
G|---7---7-------------------------------------------------------|
D|---7---7---3---3---5---5---7---7-------------------------------|
A|---5---5---3---3---5---5---7---7-------------------------------|
E|-----------1---1---3---3---5---5-------------------------------|

E|---------------------------------------------------------------|
B|---------------------------------------------------------------|
G|---------------------------------------------------------------|
D|--------3-5----/13--12-----------------------------------------|
A|---3-5---------------------------------------------------------|
E|---------------------------------------------------------------| x3

E|---------------------------------------------------------------|
B|---------------------------------------------------------------|
G|---------------------------------------------------------------|
D|---5-5-5-5-5-5-5-5---8-8-8-8-8---------------------------------|
A|---5-5-3-5-5-5-5-5---8-8-8-8-8---------------------------------|
E|---3-3-3-3-3-3-3-3---6-6-6-6-6---------------------------------|

E|---------------------------------------------------------------|
B|---------------------------------------------------------------|
G|---5-5-5-5-5-5-5-5---8-8-8-8-8---------------------------------|
D|---5-5-5-5-5-5-5-5---8-8-8-8-8---------------------------------|
A|---3-3-3-3-3-3-3-3---6-6-6-6-6---------------------------------|
E|---------------------------------------------------------------|


[Solo 1]
                    
E|---------------------------------------------------------------|
B|------------------------13--------------------------13---------|
G|---------10-12-12b14~-------14r12-10h12p10----12b14~----14r12--|
D|---10/12----------------------------------12-------------------|
A|---------------------------------------------------------------|
E|---------------------------------------------------------------|

E|----------------------------13b15-15r13-10---------------------|
B|------------13b15~-15r13-10----------------13-10--12-10-9------|
G|---10h12p10----------------------------------------------------|
D|---------------------------------------------------------------|
A|---------------------------------------------------------------|
E|---------------------------------------------------------------|

E|---------------------------------------------------------------|
B|-----------------------------------------------------13b15-----|
G|---10b11r10-9---------------------------------12-14------------|
D|----------------12-10----10-12---14-12-14/15-------------------|
A|----------------------12---------------------------------------|
E|---------------------------------------------------------------|

E|---------------------------------------------------------------|
B|---13-10---------------------------------13----------13b15-----|
G|---------12-10-----------------/12-12b14----14r12-10-----------|
D|---------------12-10\7-----------------------------------------|
A|-----------------------8~--------------------------------------|
E|---------------------------------------------------------------|

E|------------15b17-15-13-12-13----------------------------------|
B|---10-13~---------------------13/15~---------------------------|
G|---------------------------------------------------------------|
D|---------------------------------------------------------------|
A|---------------------------------------------------------------|
E|---------------------------------------------------------------|

E|---7-------3-------7-------3-----------------------------------|
B|---7-------3-------7-------3-----------------------------------|
G|---x-------x-------x-------x-----------------------------------|
D|---9-------5-------9-------5-----------------------------------|
A|---9-------5-------9-------5-----------------------------------|
E|---7-------3-------7-------3-----------------------------------|


FILL 1

E|---------------------------------------------------------------|
B|---------------7--------------------10-------------------------|
G|---9b11-9b11~--7-----------7---9b11----11r9-7h9p7--------------|
D|-----------------9-7---7-9~-----------------------7h9p7h9p7h9p7|
A|---------------------9-----------------------------------------|
E|---------------------------------------------------------------|

E|---7-------3-------7-------3-----------------------------------|
B|---7-------3-------7-------3-----------------------------------|
G|---x-------x-------x-------x-----------------------------------|
D|---9-------5-------9-------5-----------------------------------|
A|---9-------5-------9-------5-----------------------------------|
E|---7-------3-------7-------3-----------------------------------|


FILL 2

E|---------------------------------------------------------------|
B|---------------------------------------------------------------|
G|-------------------6-7--7-7b9r7-6h7p6-----7-9-9b11~------------|
D|---------------7-9--------------------7/9----------------------|
A|-------5-7-7/9-------------------------------------------------|
E|---5-7---------------------------------------------------------|

E|---------------------------------------------------------------|
B|---------------------------------------------------------------|
G|---7---7-------------------------------------------------------|
D|---7---7---3---3---2---2---5---5-------------------------------|
A|---5---5---3---3---2---2---5---5-------------------------------|
E|-----------1---1---0---0---3---3-------------------------------|

E|-------------------3-------------------------------------------|
B|-------------------3-------------------------------------------|
G|---7---7-----------x-------------------------------------------|
D|---7---7---3---3---5-------------------------------------------|
A|---5---5---3---3---5-------------------------------------------|
E|-----------1---1---3-------------------------------------------|


[Solo 2]

E|---------------------------------------------------------------|
B|------13b15~----------13b15~----13b15-15r13-10-------13--------|
G|---/14-----------/14---------------------------12b14----14r12--|
D|---------------------------------------------------------------|
A|---------------------------------------------------------------|
E|---------------------------------------------------------------|

E|---------------------------------------------------------------|
B|---------------------------------------------------------------|
G|---10h12p10---9-10-10b11r10-9----------------------------------|
D|------------------------------10/12----------------------------|
A|---------------------------------------------------------------|
E|---------------------------------------------------------------|

E|---------------------------------------------------------------|
B|-----------------------13-------10-13b15-10--------------------|
G|---9-10-12-12b14-12b14----14r12-------------12-10--------------|
D|--------------------------------------------------12-10h12-----|
A|---------------------------------------------------------------|
E|---------------------------------------------------------------|

E|----------------------------------------10-12-13-13b15r13------|
B|---------------10b11r10-----------10-13------------------------|
G|------9-10-12-----------12b14~---------------------------------|
D|---12----------------------------------------------------------|
A|---------------------------------------------------------------|
E|---------------------------------------------------------------|

E|---12h13p12-10-------------------------------------------------|
B|---------------13---12-13-13b15r13-12--------------------------|
G|--------------------------------------12/14--------------------|
D|---------------------------------------------------------------|
A|---------------------------------------------------------------|
E|---------------------------------------------------------------|

E|---------------------------------------------------------------|
B|---13-15-18-18b20r18-15h18p15-15-15-18-18b20r18-15h18p15-15-15-|
G|---------------------------------------------------------------|
D|---------------------------------------------------------------|
A|---------------------------------------------------------------|
E|---------------------------------------------------------------|

E|------------------------------------------17-20b22~-20b22~-----|
B|---18-18b20-18b20-b20-r18-15-18-22-22~-------------------------|
G|---------------------------------------------------------------|
D|---------------------------------------------------------------|
A|---------------------------------------------------------------|
E|---------------------------------------------------------------|

E|---20b22~-20b22~--20b22r20-17------20-----------20-17----------|
B|------------------------------20b22--r20-20b22~-------20-18-15-|
G|---------------------------------------------------------------|
D|---------------------------------------------------------------|
A|---------------------------------------------------------------|
E|---------------------------------------------------------------|

E|---13-15-15b17-15-13-------13----13-15-13-15b17~---------------|
B|---------------------15-13----15-------------------------------|
G|---------------------------------------------------------------|
D|---------------------------------------------------------------|
A|---------------------------------------------------------------|
E|---------------------------------------------------------------|

E|------------------------------10-12-13/15-13-15-15b17~---------|
B|---------------------10-12-13----------------------------------|
G|------------9-10--12-------------------------------------------|
D|---10-12~------------------------------------------------------|
A|---------------------------------------------------------------|
E|---------------------------------------------------------------|


[Outro]

E|---------------------------------------------------------------|
B|---------------------------------------------------------------|
G|---------------------------------------------------------------|
D|--------3-5----/13-12~-----------------------------------------|
A|---3-5---------------------------------------------------------|
E|---------------------------------------------------------------|



************************************

| /  Slide up
| ~  Vibrato
| h  Hammer-on
| p  Pull-off
| r  Release
| b  Bend
| \  Slide down
| x  Dead note
Outros vídeos desta música
    13 exibições
      • ½ Tom
      • Am
      • Bbm
      • Bm
      • Cm
      • C#m
      • Dm
      • Ebm
      • Em
      • Fm
      • F#m
      • Gm
      • G#m
    • Adicionar à lista

    Afinação da cifra

    Afinador online

      0 comentários

      Ver todos os comentários

      Entre para o Cifra Club PRO

      Tenha acesso a benefícios exclusivos no App e no Site

      • Chega de anúncios

      • Badges exclusivas

      • Mais recursos no app do Afinador

      • Atendimento Prioritário

      • Aumente seu limite de lista

      • Ajude a produzir mais conteúdo

      Cifra Club Pro

      Aproveite o Cifra Club com benefícios exclusivos e sem anúncios
      Cifra Club Pro
      Aproveite o Cifra Club com benefícios exclusivos e sem anúncios
      Ops (: Contenido disponible sólo en portugués.
      OK