Cifra Club

Under My Thumb

Pentagram (USA)

Cifra: Principal (violão e guitarra)
Selo Cifra Club: esta cifra foi revisada para atender aos critérios oficiais da nossa Equipe de Qualidade.
tom: F#m
Guitar 1 (Left Channel)
E|-----------|------------|------------|-------------|
B|------7--7-|-------5--5-|-------3--3-|-------3--3--|
G|------6--6-|-------4--4-|-------2--2-|-------2--2--|
D|--4-4-4--4-|-2-2-2-2--2-|-0-0-0-0--0-|-0-0-0-0--0--| x2
A|-----------|------------|------------|-------------|
E|-----------|------------|------------|-------------|

Guitar 2 (Right Channel) 
Listen for when to come in on the intro
E|--5/10-10-9~~-|-9h10p9-7~~-|-7h8p7-5~~-|-5-6b7r5-6b7r5-6b7r5-6b7r5--|
B|--------------|------------|-----------|----------------------------|
G|--------------|------------|-----------|----------------------------|
D|--------------|------------|-----------|----------------------------|
A|--------------|------------|-----------|----------------------------|
E|--------------|------------|-----------|----------------------------|


[Verse]

Guitar 1 (Left channel)
E|-------------|------------|------------|-------------|
B|--------7--7-|-------5--5-|-------3--3-|-------3--3--|
G|--------6--6-|-------4--4-|-------2--2-|-------2--2--|
D|--4-4-4-4--4-|-2-2-2-2--2-|-0-0-0-0--0-|-0-0-0-0--0--|
A|-------------|------------|------------|-------------|
E|-------------|------------|------------|-------------|

E|-------------|------------|------------|------------------|
B|--------7--7-|-------5--5-|-------3--3-|-3-3-3--3-3-3-3-3-|
G|--------6--6-|-------4--4-|-------2--2-|-2-2-2--2-2-2-2-2-|
D|--4-4-4-4--4-|-2-2-2-2--2-|-0-0-0-0--0-|-0-0-0--0-0-0-0-0-|
A|-------------|------------|------------|------------------|
E|-------------|------------|------------|------------------|

Guitar 2 (Right Channel)
E|------------|-----------|-----------|-----------|
B|------------|-----------|-----------|-----------|
G|------6-----|-----1-----|-----------|-----------|
D|--7-9---4-4-|-2-4---2-2-|-0-2-4-0-0-|-0-2-4-0-0-| x2
A|------------|-----------|-----------|-----------|
E|------------|-----------|-----------|-----------|


[Chorus]

Guitar 1 (Left Channel)
Start on beat 2
E|-----------|----------------|-2--2--2-2-2-|---------------|------------|
B|-----------|----------------|-3--3--3-3-3-|---------------|------------|
G|--2--2--2--|-2--2--2--2-2-2-|-2--2--2-2-2-|-3--3-3--3-3-3-|------------|
D|--2--2--2--|-2--2--2--2-2-2-|-0--0--0-0-0-|-3--3-3--3-3-3-|-3-3--3-3-3-|
A|--0--0--0--|-0--0--0--0-0-0-|-------------|-2--2-2--2-2-2-|-3-3--3-3-3-|
E|-----------|----------------|-------------|---------------|-2-2--2-2-2-|

E|-----------------|----------|----------|----------|----------|
B|--5--5-5--3-3-3--|----------|----------|----------|----------|
G|--4--4-4--2-2-2--|----------|----------|----------|----------|
D|--2--2-2--0-0-0--|-2-2--2-2-|-2-2--2-2-|-2-2--2-2-|-2-2--2-2-|
A|-----------------|-0-0--0-0-|-0-0--0-0-|-0-0--0-0-|-0-0--0-0-|
E|-----------------|----------|----------|----------|----------|

Guitar 2 (Right Channel)
E|----------------|---------------|----3-3-2-|------------|----------|
B|----------------|---------------|-3--3-3-3-|------------|----------|
G|--2--2--2-2-2-2-|-2-2-2-2-2-2-2-|-2--2-2-2-|-3-3-3--3-3-|----------|
D|--2--2--2-2-2-2-|-2-2-2-2-2-2-2-|-0--------|-3-3-3--3-3-|-3-3--3-3-|
A|--0--0--0-0-0-0-|-0-0-0-0-0-0-0-|----------|-2-2-2--2-2-|-3-3--3-3-|
E|----------------|---------------|----------|------------|-2-2--2-2-|

E|-------------|-------------|------------------|-------------|------------------|
B|--5--5--3--3-|---------3-3-|------------3-3-3-|---------3-3-|------------3-3-3-|
G|--4--4--2--2-|-2--2--2-2-2-|-2--2--2--2-2-2-2-|-2--2--2-2-2-|-2--2--2--2-2-2-2-|
D|--2--2--0--0-|-2--2--2-0-0-|-2--2--2--2-0-0-0-|-2--2--2-0-0-|-2--2--2--2-0-0-0-|
A|-------------|-0--0--0-----|-0--0--0--0-------|-0--0--0-----|-0--0--0--0-------|
E|-------------|-------------|------------------|-------------|------------------|


[Verse]

Guitar 1 (Left channel)
E|-------------|------------|------------|-------------|
B|--------7--7-|-------5--5-|-------3--3-|-------3--3--|
G|--------6--6-|-------4--4-|-------2--2-|-------2--2--|
D|--4-4-4-4--4-|-2-2-2-2--2-|-0-0-0-0--0-|-0-0-0-0--0--|
A|-------------|------------|------------|-------------|
E|-------------|------------|------------|-------------|

E|-------------|------------|------------|------------------|
B|--------7--7-|-------5--5-|-------3--3-|-3-3-3--3-3-3-3-3-|
G|--------6--6-|-------4--4-|-------2--2-|-2-2-2--2-2-2-2-2-|
D|--4-4-4-4--4-|-2-2-2-2--2-|-0-0-0-0--0-|-0-0-0--0-0-0-0-0-|
A|-------------|------------|------------|------------------|
E|-------------|------------|------------|------------------|

Guitar 2 (Right Channel)
E|------------|-----------|-----------|-----------|
B|------------|-----------|-----------|-----------|
G|------6-----|-----1-----|-----------|-----------|
D|--7-9---4-4-|-2-4---2-2-|-0-2-4-0-0-|-0-2-4-0-0-| x2
A|------------|-----------|-----------|-----------|
E|------------|-----------|-----------|-----------|


[Chorus]

Guitar 1 (Left Channel)
Start on beat 2
E|-----------|----------------|-2--2--2-2-2-|---------------|------------|
B|-----------|----------------|-3--3--3-3-3-|---------------|------------|
G|--2--2--2--|-2--2--2--2-2-2-|-2--2--2-2-2-|-3--3-3--3-3-3-|------------|
D|--2--2--2--|-2--2--2--2-2-2-|-0--0--0-0-0-|-3--3-3--3-3-3-|-3-3--3-3-3-|
A|--0--0--0--|-0--0--0--0-0-0-|-------------|-2--2-2--2-2-2-|-3-3--3-3-3-|
E|-----------|----------------|-------------|---------------|-2-2--2-2-2-|

E|-----------------|----------|----------|----------|----------|
B|--5--5-5--3-3-3--|----------|----------|----------|----------|
G|--4--4-4--2-2-2--|----------|----------|----------|----------|
D|--2--2-2--0-0-0--|-2-2--2-2-|-2-2--2-2-|-2-2--2-2-|-2-2--2-2-|
A|-----------------|-0-0--0-0-|-0-0--0-0-|-0-0--0-0-|-0-0--0-0-|
E|-----------------|----------|----------|----------|----------|

Guitar 2 (Right Channel)
E|----------------|---------------|----3-3-2-|------------|----------|
B|----------------|---------------|-3--3-3-3-|------------|----------|
G|--2--2--2-2-2-2-|-2-2-2-2-2-2-2-|-2--2-2-2-|-3-3-3--3-3-|----------|
D|--2--2--2-2-2-2-|-2-2-2-2-2-2-2-|-0--------|-3-3-3--3-3-|-3-3--3-3-|
A|--0--0--0-0-0-0-|-0-0-0-0-0-0-0-|----------|-2-2-2--2-2-|-3-3--3-3-|
E|----------------|---------------|----------|------------|-2-2--2-2-|

E|-------------|-------------|------------------|-------------|------------------|
B|--5--5--3--3-|---------3-3-|------------3-3-3-|---------3-3-|------------3-3-3-|
G|--4--4--2--2-|-2--2--2-2-2-|-2--2--2--2-2-2-2-|-2--2--2-2-2-|-2--2--2--2-2-2-2-|
D|--2--2--0--0-|-2--2--2-0-0-|-2--2--2--2-0-0-0-|-2--2--2-0-0-|-2--2--2--2-0-0-0-|
A|-------------|-0--0--0-----|-0--0--0--0-------|-0--0--0-----|-0--0--0--0-------|
E|-------------|-------------|------------------|-------------|------------------|


[Verse]

Guitar 1 (Left channel)
E|-------------|------------|------------|-------------|
B|--------7--7-|-------5--5-|-------3--3-|-------3--3--|
G|--------6--6-|-------4--4-|-------2--2-|-------2--2--|
D|--4-4-4-4--4-|-2-2-2-2--2-|-0-0-0-0--0-|-0-0-0-0--0--|
A|-------------|------------|------------|-------------|
E|-------------|------------|------------|-------------|

E|-------------|------------|------------|------------------|
B|--------7--7-|-------5--5-|-------3--3-|-3-3-3--3-3-3-3-3-|
G|--------6--6-|-------4--4-|-------2--2-|-2-2-2--2-2-2-2-2-|
D|--4-4-4-4--4-|-2-2-2-2--2-|-0-0-0-0--0-|-0-0-0--0-0-0-0-0-|
A|-------------|------------|------------|------------------|
E|-------------|------------|------------|------------------|

Guitar 2 (Right Channel)
E|------------|-----------|-----------|-----------|
B|------------|-----------|-----------|-----------|
G|------6-----|-----1-----|-----------|-----------|
D|--7-9---4-4-|-2-4---2-2-|-0-2-4-0-0-|-0-2-4-0-0-| x2
A|------------|-----------|-----------|-----------|
E|------------|-----------|-----------|-----------|


[Chorus]

Guitar 1 (Left Channel)
Start on beat 2
E|-----------|----------------|-2--2--2-2-2-|---------------|------------|
B|-----------|----------------|-3--3--3-3-3-|---------------|------------|
G|--2--2--2--|-2--2--2--2-2-2-|-2--2--2-2-2-|-3--3-3--3-3-3-|------------|
D|--2--2--2--|-2--2--2--2-2-2-|-0--0--0-0-0-|-3--3-3--3-3-3-|-3-3--3-3-3-|
A|--0--0--0--|-0--0--0--0-0-0-|-------------|-2--2-2--2-2-2-|-3-3--3-3-3-|
E|-----------|----------------|-------------|---------------|-2-2--2-2-2-|

E|-----------------|----------|----------|----------|----------|
B|--5--5-5--3-3-3--|----------|----------|----------|----------|
G|--4--4-4--2-2-2--|----------|----------|----------|----------|
D|--2--2-2--0-0-0--|-2-2--2-2-|-2-2--2-2-|-2-2--2-2-|-2-2--2-2-|
A|-----------------|-0-0--0-0-|-0-0--0-0-|-0-0--0-0-|-0-0--0-0-|
E|-----------------|----------|----------|----------|----------|

Guitar 2 (Right Channel)
E|----------------|---------------|----3-3-2-|------------|----------|
B|----------------|---------------|-3--3-3-3-|------------|----------|
G|--2--2--2-2-2-2-|-2-2-2-2-2-2-2-|-2--2-2-2-|-3-3-3--3-3-|----------|
D|--2--2--2-2-2-2-|-2-2-2-2-2-2-2-|-0--------|-3-3-3--3-3-|-3-3--3-3-|
A|--0--0--0-0-0-0-|-0-0-0-0-0-0-0-|----------|-2-2-2--2-2-|-3-3--3-3-|
E|----------------|---------------|----------|------------|-2-2--2-2-|

E|-------------|-------------|------------------|-------------|------------------|
B|--5--5--3--3-|---------3-3-|------------3-3-3-|---------3-3-|------------3-3-3-|
G|--4--4--2--2-|-2--2--2-2-2-|-2--2--2--2-2-2-2-|-2--2--2-2-2-|-2--2--2--2-2-2-2-|
D|--2--2--0--0-|-2--2--2-0-0-|-2--2--2--2-0-0-0-|-2--2--2-0-0-|-2--2--2--2-0-0-0-|
A|-------------|-0--0--0-----|-0--0--0--0-------|-0--0--0-----|-0--0--0--0-------|
E|-------------|-------------|------------------|-------------|------------------|


[Solo]

E|------------------|----------|------------------------|-------------------|
B|--9/10~~-10h12p10-|-12b14r12-|-10h12p10--11b12--7-7~~-|-7-9-7-9-7-9-7-9-7-|
G|------------------|----------|------------------------|-------------------|
D|------------------|----------|------------------------|-------------------| x3
A|------------------|----------|------------------------|-------------------|
E|------------------|----------|------------------------|-------------------|
                     ^ Release slowley

E|------------------|----------|-17h19p17--19b20----------|-------------------------|
B|--9/10~~-10h12p10-|-12b14r12-|------------------15-15~~-|-17-15-17-15-17-15-17-18-|
G|------------------|----------|--------------------------|-------------------------|
D|------------------|----------|--------------------------|-------------------------|
A|------------------|----------|--------------------------|-------------------------|
E|------------------|----------|--------------------------|-------------------------|
                     ^ Release slowley


[Chorus]

Guitar 1 (Left Channel)
Start on beat 2
E|-----------|----------------|-2--2--2-2-2-|---------------|------------|
B|-----------|----------------|-3--3--3-3-3-|---------------|------------|
G|--2--2--2--|-2--2--2--2-2-2-|-2--2--2-2-2-|-3--3-3--3-3-3-|------------|
D|--2--2--2--|-2--2--2--2-2-2-|-0--0--0-0-0-|-3--3-3--3-3-3-|-3-3--3-3-3-|
A|--0--0--0--|-0--0--0--0-0-0-|-------------|-2--2-2--2-2-2-|-3-3--3-3-3-|
E|-----------|----------------|-------------|---------------|-2-2--2-2-2-|

E|-----------------|----------|----------|----------|----------|
B|--5--5-5--3-3-3--|----------|----------|----------|----------|
G|--4--4-4--2-2-2--|----------|----------|----------|----------|
D|--2--2-2--0-0-0--|-2-2--2-2-|-2-2--2-2-|-2-2--2-2-|-2-2--2-2-|
A|-----------------|-0-0--0-0-|-0-0--0-0-|-0-0--0-0-|-0-0--0-0-|
E|-----------------|----------|----------|----------|----------|

Guitar 2 (Right Channel)
E|----------------|---------------|----3-3-2-|------------|----------|
B|----------------|---------------|-3--3-3-3-|------------|----------|
G|--2--2--2-2-2-2-|-2-2-2-2-2-2-2-|-2--2-2-2-|-3-3-3--3-3-|----------|
D|--2--2--2-2-2-2-|-2-2-2-2-2-2-2-|-0--------|-3-3-3--3-3-|-3-3--3-3-|
A|--0--0--0-0-0-0-|-0-0-0-0-0-0-0-|----------|-2-2-2--2-2-|-3-3--3-3-|
E|----------------|---------------|----------|------------|-2-2--2-2-|

E|-------------|-------------|------------------|-------------|------------------|
B|--5--5--3--3-|---------3-3-|------------3-3-3-|---------3-3-|------------3-3-3-|
G|--4--4--2--2-|-2--2--2-2-2-|-2--2--2--2-2-2-2-|-2--2--2-2-2-|-2--2--2--2-2-2-2-|
D|--2--2--0--0-|-2--2--2-0-0-|-2--2--2--2-0-0-0-|-2--2--2-0-0-|-2--2--2--2-0-0-0-|
A|-------------|-0--0--0-----|-0--0--0--0-------|-0--0--0-----|-0--0--0--0-------|
E|-------------|-------------|------------------|-------------|------------------|


[Interlude]

Guitar 1 (Left Channel)
E|-------|------|------|------|------|------|------|-------|---------|
B|--7----|-5----|-3----|------|-7----|-5----|-3----|-3-3-3-|-3-3-3-3-|
G|--6----|-4----|-2----|------|-6----|-4----|-2----|-2-2-2-|-2-2-2-2-|
D|--4----|-2----|-0----|------|-4----|-2----|-0----|-0-0-0-|-0-0-0-0-|
A|-------|------|------|------|------|------|------|-------|---------|
E|-------|------|------|------|------|------|------|-------|---------|
                        ^ Small drum fill           ^ Start on beat 2
Guitar 2 (Right Channel)
E|-------|------|------|------|------|------|------|-----------------|
B|--7----|-5----|-3----|------|-7----|-5----|-3----|-3-3-3-3-3-3-3-3-|
G|--6----|-4----|-2----|------|-6----|-4----|-2----|-2-2-2-2-2-2-2-2-|
D|--4----|-2----|-0----|------|-4----|-2----|-0----|-0-0-0-0-0-0-0-0-|
A|-------|------|------|------|------|------|------|-----------------|
E|-------|------|------|------|------|------|------|-----------------|
                        ^ Small drum fill           ^ Start on and of 1


[Chorus]

Guitar 1 (Left Channel)
Start on beat 2
E|-----------|----------------|-2--2--2-2-2-|---------------|------------|
B|-----------|----------------|-3--3--3-3-3-|---------------|------------|
G|--2--2--2--|-2--2--2--2-2-2-|-2--2--2-2-2-|-3--3-3--3-3-3-|------------|
D|--2--2--2--|-2--2--2--2-2-2-|-0--0--0-0-0-|-3--3-3--3-3-3-|-3-3--3-3-3-|
A|--0--0--0--|-0--0--0--0-0-0-|-------------|-2--2-2--2-2-2-|-3-3--3-3-3-|
E|-----------|----------------|-------------|---------------|-2-2--2-2-2-|

E|-----------------|----------|----------|----------|----------|
B|--5--5-5--3-3-3--|----------|----------|----------|----------|
G|--4--4-4--2-2-2--|----------|----------|----------|----------|
D|--2--2-2--0-0-0--|-2-2--2-2-|-2-2--2-2-|-2-2--2-2-|-2-2--2-2-|
A|-----------------|-0-0--0-0-|-0-0--0-0-|-0-0--0-0-|-0-0--0-0-|
E|-----------------|----------|----------|----------|----------|

Guitar 2 (Right Channel)
E|----------------|---------------|----3-3-2-|------------|----------|
B|----------------|---------------|-3--3-3-3-|------------|----------|
G|--2--2--2-2-2-2-|-2-2-2-2-2-2-2-|-2--2-2-2-|-3-3-3--3-3-|----------|
D|--2--2--2-2-2-2-|-2-2-2-2-2-2-2-|-0--------|-3-3-3--3-3-|-3-3--3-3-|
A|--0--0--0-0-0-0-|-0-0-0-0-0-0-0-|----------|-2-2-2--2-2-|-3-3--3-3-|
E|----------------|---------------|----------|------------|-2-2--2-2-|

E|-------------|-------------|------------------|-------------|------------------|
B|--5--5--3--3-|---------3-3-|------------3-3-3-|---------3-3-|------------3-3-3-|
G|--4--4--2--2-|-2--2--2-2-2-|-2--2--2--2-2-2-2-|-2--2--2-2-2-|-2--2--2--2-2-2-2-|
D|--2--2--0--0-|-2--2--2-0-0-|-2--2--2--2-0-0-0-|-2--2--2-0-0-|-2--2--2--2-0-0-0-|
A|-------------|-0--0--0-----|-0--0--0--0-------|-0--0--0-----|-0--0--0--0-------|
E|-------------|-------------|------------------|-------------|------------------|


[Outro]

Guitar 1 (Left Channel)
E|----------|----------|----------|----------|
B|----------|----------|----------|----------|
G|----------|----------|----------|----------|
D|-2-2--2-2-|-2-2--2-2-|-2-2--2-2-|-2-2--2-2-|
A|-0-0--0-0-|-0-0--0-0-|-0-0--0-0-|-0-0--0-0-|
E|----------|----------|----------|----------|

E|------------|-----------|-----------|-----------|-------|
B|--7-7---5---|-3-3---5---|-7-7---5---|-3-3---5---|-------|
G|--6-6---4---|-2-2---4---|-6-6---4---|-2-2---4---|-2-----|
D|--4-4---2---|-0-0---2---|-4-4---2---|-0-0---2---|-2-----|
A|------------|-----------|-----------|-----------|-0-----|
E|------------|-----------|-----------|-----------|-------|

Guitar 2 (Right Channel)
E|--------------|------------------|-------------|------------------|
B|----------3-3-|------------3-3-3-|---------3-3-|------------3-3-3-|
G|--2--2--2-2-2-|-2--2--2--2-2-2-2-|-2--2--2-2-2-|-2--2--2--2-2-2-2-|
D|--2--2--2-0-0-|-2--2--2--2-0-0-0-|-2--2--2-0-0-|-2--2--2--2-0-0-0-|
A|--0--0--0-----|-0--0--0--0-------|-0--0--0-----|-0--0--0--0-------|
E|--------------|------------------|-------------|------------------|

E|------------|-----------|-----------|-----------|-------|
B|------------|-----------|-----------|-----------|-------|
G|----2-------|-----------|---2-------|-----------|-4/6---|
D|--4---4-2---|-------2---|-4---4-2---|-------2---|-------|
A|------------|-5-4-2-----|-----------|-5-4-2-----|-------|
E|------------|-----------|-----------|-----------|-------|


************************************
| /  Slide up
| ~  Vibrato
| b  Bend
| r  Release bend
| h  Hammer on
| p  Pull off
************************************
Outros vídeos desta música
    5 exibições
      • ½ Tom
      • Am
      • Bbm
      • Bm
      • Cm
      • C#m
      • Dm
      • Ebm
      • Em
      • Fm
      • F#m
      • Gm
      • G#m
    • Adicionar à lista

    Afinação da cifra

    Afinador online

      0 comentários

      Ver todos os comentários

      Entre para o Cifra Club PRO

      Tenha acesso a benefícios exclusivos no App e no Site

      • Chega de anúncios

      • Badges exclusivas

      • Mais recursos no app do Afinador

      • Atendimento Prioritário

      • Aumente seu limite de lista

      • Ajude a produzir mais conteúdo

      Cifra Club Pro

      Aproveite o Cifra Club com benefícios exclusivos e sem anúncios
      Cifra Club Pro
      Aproveite o Cifra Club com benefícios exclusivos e sem anúncios
      Ops (: Contenido disponible sólo en portugués.
      OK