Cifra Club

Breaking all the Rules

Peter Frampton

Cifra: Principal (violão e guitarra)
tom: A
[Riff Intro]

E|--------------------------------------------|
B|--------------------------------------------|
G|--------------------------------------------|
D|------------------------------5/7-5-5-------|
A|---------5| -7-7-5-7-------5-7----------------
E|----5/7--------------5/7--------------------|
                                G      D
E|--------------------------------------------|
B|--------------------------------------------|
G|------------------------------------7-------|
D|-----------------------------5--5---7-------|
A|---------5-7-7-5-7--5--------5--5---5-------|
E|----5/7---------------7-5----3--3-----------|

E|--------------------------------------------|
B|--------------------------------------------|
G|--------------------------------------------|
D|------------------------------5/7-5-5-------|
A|---------5| -7-7-5-7-------5-7----------------
E|----5/7--------------5/7--------------------|
                                  G      A
E|--------------------------------------------|
B|--------------------------------------------|
G|--------------------------------------------|
D|-------------5-5---------------5--5---7-----|
A|---------5-7-----7-5-7-7-5-----5--5---5-----|
E|----5/7--------------------7---3--3---5-----|

[Solo Introdução]

E|---------------14-15-14-12--------------------------|
B|----15b17| --17~--------------15-15-15~---------------
G|-------------------------------------------14b16r14-|
D|----------------------------------------------------|
A|----------------------------------------------------|
E|----------------------------------------------------|

E|---------------------------------------------------------------------|
B|----------12-----------------------------12--12----------------------|
G|----12-14----12-11-12-11-12--11-12---------------14--14b16r14--14-14-|
D|-----------------------------------14--------------------------------|
A|---------------------------------------------------------------------|
E|---------------------------------------------------------------------|

E|----0------0------3p2p0----------0------0-------3p2p0---------------|
B|------0------0---------------------0------0-------------------------|
G|--------1------1--------2| --2p0-------1------1---------2--2p0--------
D|------------------------2| --2p0------------------------2--2p0--------
A|--------------------------------------------------------------------|
E|--------------------------------------------------------------------|

[Primeira Parte]

    E    Bm        D             E
E|-----------5---------------------------------|
B|-----------3---------------------------------|
G|--------4-----4-6-7--------------------------|
D|---2----4-----4-6-7----7-7---5-5--2----------|
A|---2----2-----2-4-5----7-7---5-5--2----------|
E|---0-------------------5-5-0-3-3--0----------|

E|--------------------------------------------|
B|---------------------5----------------------|
G|---------------4--6-------------------------|
D|---------2--6-------------------------------|
A|---2--4-------------------------------------|
E|--------------------------------------------|
         E                  Bm          D              E
E|---------4-4----------2------------------------|
B|-------------5--------3------------------------|
G|-------4-------4--4------4-6-7-----------------|
D|---2--------------4------4-6-7---7-7---5-5--2--|
A|---2--------------2------2-4-5---7-7---5-5--2--|
E|---0-----------------------------5-5-0-3-3--0--|

[Refrão]
         G     D     Em                                G      D
E|------3-----7------3-2-0-3-2-0------------------------3------3-|
B|------3-----7-----------------------------------------3---2--2-|
G|---------7-----5--------------------------------------0---3----|
D|---5-----7-----5-----------------------------------0------0----|
A|---5-----5-----3----------------2-3-2-3-2-3-2-0----2-----------|
E|---3--------------------------------------------2--3-----------|
         C
E|------3-------------------------|
B|------3-------------------------|
G|---5-----5-5--5-5--7------------|
D|---5-----5-5--5-5--7------------|
A|---3-----3-3--3-3--5------------|
E|--------------------------------|
         G     D     Em                                G      D
E|------3-----7------3-2-0-3-2-0------------------------3------3-|
B|------3-----7-----------------------------------------3---2--2-|
G|---------7-----5--------------------------------------0---3----|
D|---5-----7-----5-----------------------------------0------0----|
A|---5-----5-----3----------------2-3-2-3-2-3-2-0----2-----------|
E|---3--------------------------------------------2--3-----------|

         C
E|------3-------------------------|
B|------3-------------------------|
G|---5-----5-5--5-5---------------|
D|---5-----5-5--5-5---------------|
A|---3-----3-3--3-3---------------|
E|--------------------------------|

[Segunda Parte]

    E    Bm        D            E
E|-----------5---------------------------------|
B|-----------3---------------------------------|
G|--------4-----4-6-7--------------------------|
D|---2----4-----4-6-7----7-7---5-5--2----------|
A|---2----2-----2-4-5----7-7---5-5--2----------|
E|---0-------------------5-5-0-3-3--0----------|
    E    Bm
E|-----------0------------5-----------7-----------------|
B|---------2---2----------3---------7---10------7-------|
G|-------4-------4-----4------9b11---------9b11---9-7---|
D|---2-------------2---4--------------------------------|
A|---2-----------------2--------------------------------|
E|---0--------------------------------------------------|
        D                     E
E|---------------------------0-----0---|
B|------------------------------3------|
G|---7---------------------------------|
D|---7----7-7---5-5--2-----------------|
A|---5----7-7---5-5--2-----------------|
E|--------5-5-0-3-3--0-----------------|

[Solo 1]

E|-------------------------------------------|
B|--15b17-15-12-15-12-15-12-10-12-10-8-------|
G|-------------------------------------9-----|
D|-------------------------------------------|
A|-------------------------------------------|
E|-------------------------------------------|

E|--------12-x-12-x-12-x-12-14-15-14-----|
B|------x--------------------------------|
G|----x----------------------------------|
D|--x------------------------------------|
A|---------------------------------------|
E|---------------------------------------|

E|------15p14p12| ---14p12-----12--------------------------
B|-----------------------15------15p12-------------------|
G|-------------------------------------14p12-------------|
D|--------------------------------------------14p12-14---|
A|-------------------------------------------------------|
E|-------------------------------------------------------|

E|--------------------------------------------------------------------------------|
B|-----10-12-14-12-10-12-14-12-10-12-14-12-10-12-14-12-10-12-14-12-10-12-14-12~---|
G|--12----------------------------------------------------------------------------|
D|--------------------------------------------------------------------------------|
A|--------------------------------------------------------------------------------|
E|--------------------------------------------------------------------------------|

E|------12-15-15/17-17/19-17b19-17b19---17b19-17b19-17b19--15-17-15~--|
B|---15---------------------------------------------------------------|
G|-------------------------------------9------------------------------|
D|--------------------------------------------------------------------|
A|--------------------------------------------------------------------|
E|--------------------------------------------------------------------|

E|---17-15/14-14-15/12-12-14/10-10-12/9-9-10/7-7-9-7----|
B|------------------------------------------------------|
G|------------------------------------------------------|
D|------------------------------------------------------|
A|------------------------------------------------------|
E|------------------------------------------------------|

E|-------------------------------------------|
B|--10-8-7-8-7----------8-8-10-10/12-12------|
G|-------------9-7-7/9~----------------------|
D|-------------------------------------------|
A|-------------------------------------------|
E|-------------------------------------------|

[Terceira Parte]
         E             Bm            D            E
E|------5p4-5p4--------5------------------------------------|
B|---------------------3------------------------------------|
G|-----------------4--------4-6-7---------------------------|
D|---2-------------4--------4-6-7----7-7---5-5--2-----------|
A|---2-------------2--------2-4-5----7-7---5-5--2-----------|
E|---0-------------------------------5-5-0-3-3--0-----------|

E|-------------------------------------------|
B|-------------------------------------------|
G|---------4-2-------------------------------|
D|---4-5-6-----4-----------------------------|
A|-------------------------------------------|
E|-------------------------------------------|
         E             Bm            D            E
E|------5p4-5p4--------5------------------------------------|
B|---------------------3------------------------------------|
G|-----------------4--------4-6-7---------------------------|
D|---2-------------4--------4-6-7----7-7---5-5--2-----------|
A|---2-------------2--------2-4-5----7-7---5-5--2-----------|
E|---0-------------------------------5-5-0-3-3--0-----------|

[Solo Final]

E|-------15-----15---15-----|----12\--12\--12\---|
B|---15----15----15---------|--------------------|
G|--------------------------|--------------------|
D|--------------------------|--------------------|
A|--------------------------|--------------------|
E|--------------------------|--------------------|

E|----------------------------------|--------------------------------|
B|----------------------------------|-------------------------15b17--|
G|---9----9-11-12-------12-x-x-12---|-----9----9-11-12---------------|
D|---9----9-11-12-------12-x-x-12---|-----9----9-11-12---------------|
A|---7----7-9--10-------10-x-x-10---|-----7----7-9--10---------------|
E|----------------------------------|--------------------------------|

E|---12--14-15-14-15-14-15| -14p12----14p12--------------------------
B|-------------------------------15-------15--12-------------------|
G|-----------------------------------------------14--12--14-14~~---|
D|-----------------------------------------------------------------|
A|-----------------------------------------------------------------|
E|-----------------------------------------------------------------|

E|----------------------------------------------------------------------------|
B|----------------------------------------------------------------------------|
G|---14b16--12--12-14-12-11----12-11------------------------------------------|
D|--------------------------14-------14-12-14-12------------------------------|
A|-----------------------------------------------14-13-12-10-----12-10--------|
E|------------------------------------------------------------12-------12-12~-|

E|-------------------------------------------|
B|-------------------------------------------|
G|-----------------12------------------------|
D|--------------12----14~~-------------------|
A|-------10-12-14----------------------------|
E|---12--------------------------------------|

E|---10---12--------|
B|---10---12--------|
G|------------------| (X11)
D|------------------|
A|------------------|
E|------------------|

E|----3-2-0-3-2-0--------------------7------------------|
B|----------------0-3---------7-8-10---10-8-7-----------|
G|--------------------9--7-9------------------9--9-7-9~-|
D|------------------------------------------------------|
A|------------------------------------------------------|
E|------------------------------------------------------|

E|---15-15-14--15-14-15-14---14-11-14---12-10-12--9-7-9---8-7-8---7-5-7--|
B|-----------------------------------------------------------------------|
G|---12-12-11--12-11-12-11---11-9| --11---9--7--9---7-5-7---5-4-5---4-2-4--
D|-----------------------------------------------------------------------|
A|-----------------------------------------------------------------------|
E|-----------------------------------------------------------------------|

E|-------------------------------------------|
B|---5~---3-5--------------------------------|
G|-------------------------------------------|
D|-------------------------------------------|
A|-------------------------------------------|
E|-------------------------------------------|

[Final]

                              G    A     E  D  E           E
E|-------------------------------------------------------------|
B|-------------------------------------------------------------|
G|--------------------------------------9--7| --9~----------9\---|
D|---------------------------5-5--7-----9--7| --9~----------9\---|
A|-------5-7-7--5-7--5-------5-5--7-----7--5| --7~----------7\---|
E|---5/7---------------7-5---3-3--5----------------------------|


[Intro] (2x)

[Solo Intro]

[Primeira Parte]

E               Bm
We are the people one and all
D          A                 E
 From deliverance to the fall
E                    Bm
From the battle and the heat
D        A                E
 To our triumph and defeat

[Refrão]

G                        D      Em
We are the young ones crying out
G                D        C
 Full of anger, full of doubt
G                 D             Em
 And we're breaking all of the rules
G            D            C
 Never choosing to be fools

[Intro]

[Segunda Parte]

E                Bm
We are tired of being used
D               A         E
 We are constantly excused
E             Bm
In the battle and the heat
D           A         E
 In the shadow of retreat

[Refrão]

G                        D      Em
We are the young ones crying out
G                D        C
 Full of anger, full of doubt
G                 D             Em
 And we're breaking all of the rules
G            D            C
 Never choosing to be fools

[Intro]

[Solo 1]

[Terceira Parte]

E                 Bm
We are the people one and all
D         A               E
 From deliverance to the fall
E                Bm
From the bitter to the brave
D          A               E
 From the cradle to the grave

[Refrão]

G                        D      Em
We are the young ones crying out
G                D        C
 Full of anger, full of doubt
G                 D             Em
 And we're breaking all of the rules
G            D            C
 Never choosing to be fools

[Intro]

[Solo Final]

[Intro]

[Final]
00:00 / 00:00
Outros vídeos desta música
Repetir
Outros vídeos desta música
Composição de Keith Reid / Peter Frampton
164.895 exibições
    • ½ Tom
    • A
    • Bb
    • B
    • C
    • Db
    • D
    • Eb
    • E
    • F
    • F#
    • G
    • Ab
  • Adicionar à lista

    0 comentários

    Ver todos os comentários

    Entre para oCifra Club PRO

    Tenha acesso a benefícios exclusivos no App e no Site

    • Chega de anúncios

    • Prioridade de compra em lançamentos

    • Mais recursos no app do Afinador

    • Atendimento Prioritário

    • Descontos nos produtos Cifra Club

    • Ajude a produzir mais conteúdo

    00:00 / 00:00

    Cifra Club Pro

    Aproveite o Cifra Club com benefícios exclusivos e sem anúncios
    Cifra Club Pro
    Aproveite o Cifra Club com benefícios exclusivos e sem anúncios
    OK