Enviar cifraEntrar

Breaking all the Rules

Peter Frampton

Cifra: Principal
exibições 121.324
Tom: A
P.S.: A música tem duas guitarras. A tablatura está para uma delas. em algumas partes fiz arranjos para uma guitarra só fazer a parte da segunda também. Em outras, coloquei a que fica melhor.

P.S.2: algumas das partes na tab onde tem mais que um traço, para separar as notas são para dar alguma noção do tempo. mesmo assim você deve tirar a musica enquanto a ouve, já que não é preciso.

P.S.3: Caso tenha ficado boa, a tab, comente em baixo

•       1 Riff Intro:


E|--------------------------------------------
B|--------------------------------------------
G|--------------------------------------------
D|------------------------------5/7-5-5-------
A|---------5—7-7-5-7-------5-7----------------
E|----5/7--------------5/7--------------------


                                G      D
E|--------------------------------------------
B|--------------------------------------------
G|------------------------------------7-------
D|-----------------------------5--5---7-------
A|---------5-7-7-5-7--5--------5--5---5-------
E|----5/7---------------7-5----3--3-----------


E|--------------------------------------------
B|--------------------------------------------
G|--------------------------------------------
D|------------------------------5/7-5-5-------
A|---------5—7-7-5-7-------5-7----------------
E|----5/7--------------5/7--------------------


                                  G      A
E|--------------------------------------------
B|--------------------------------------------
G|--------------------------------------------
D|-------------5-5---------------5--5---7-----
A|---------5-7-----7-5-7-7-5-----5--5---5-----
E|----5/7--------------------7---3--3---5-----


•       2 Solo Introdução


E|---------------14-15-14-12--------------------------
B|----15b17—-17~--------------15-15-15~---------------
G|-------------------------------------------14b16r14-
D|----------------------------------------------------
A|----------------------------------------------------
E|----------------------------------------------------


E|---------------------------------------------------------------------
B|----------12-----------------------------12--12----------------------
G|----12-14----12-11-12-11-12--11-12---------------14--14b16r14--14-14-
D|-----------------------------------14--------------------------------
A|---------------------------------------------------------------------
E|---------------------------------------------------------------------


E|----0------0------3p2p0----------0------0-------3p2p0---------------
B|------0------0---------------------0------0-------------------------
G|--------1------1--------2—-2p0-------1------1---------2—-2p0--------
D|------------------------2—-2p0------------------------2—-2p0--------
A|--------------------------------------------------------------------
E|--------------------------------------------------------------------


•       3 Primeira Parte:


    E    Bm        D             E
E|-----------5---------------------------------
B|-----------3---------------------------------
G|--------4-----4-6-7--------------------------
D|---2----4-----4-6-7----7-7---5-5--2----------
A|---2----2-----2-4-5----7-7---5-5--2----------
E|---0-------------------5-5-0-3-3--0----------


E|--------------------------------------------
B|---------------------5----------------------
G|---------------4--6-------------------------
D|---------2--6-------------------------------
A|---2--4-------------------------------------
E|--------------------------------------------


         E                  Bm          D              E
E|---------4-4----------2------------------------
B|-------------5--------3------------------------
G|-------4-------4--4------4-6-7-----------------
D|---2--------------4------4-6-7---7-7---5-5--2--
A|---2--------------2------2-4-5---7-7---5-5--2--
E|---0-----------------------------5-5-0-3-3--0--


•       4 Refrão:

         G     D     Em                                G      D
E|------3-----7------3-2-0-3-2-0------------------------3------3-
B|------3-----7-----------------------------------------3---2--2-
G|---------7-----5--------------------------------------0---3----
D|---5-----7-----5-----------------------------------0------0----
A|---5-----5-----3----------------2-3-2-3-2-3-2-0----2-----------
E|---3--------------------------------------------2--3-----------


         C
E|------3-------------------------
B|------3-------------------------
G|---5-----5-5--5-5--7------------
D|---5-----5-5--5-5--7------------
A|---3-----3-3--3-3--5------------
E|--------------------------------


         G     D     Em                                G      D
E|------3-----7------3-2-0-3-2-0------------------------3------3-
B|------3-----7-----------------------------------------3---2--2-
G|---------7-----5--------------------------------------0---3----
D|---5-----7-----5-----------------------------------0------0----
A|---5-----5-----3----------------2-3-2-3-2-3-2-0----2-----------
E|---3--------------------------------------------2--3-----------


         C
E|------3-------------------------
B|------3-------------------------
G|---5-----5-5--5-5---------------
D|---5-----5-5--5-5---------------
A|---3-----3-3--3-3---------------
E|--------------------------------

•       5 Segunda parte


    E    Bm        D            E
E|-----------5---------------------------------
B|-----------3---------------------------------
G|--------4-----4-6-7--------------------------
D|---2----4-----4-6-7----7-7---5-5--2----------
A|---2----2-----2-4-5----7-7---5-5--2----------
E|---0-------------------5-5-0-3-3--0----------


    E    Bm
E|-----------0------------5-----------7-----------------
B|---------2---2----------3---------7---10------7-------
G|-------4-------4-----4------9b11---------9b11---9-7---
D|---2-------------2---4--------------------------------
A|---2-----------------2--------------------------------
E|---0--------------------------------------------------


        D                     E
E|---------------------------0-----0---
B|------------------------------3------
G|---7---------------------------------
D|---7----7-7---5-5--2-----------------
A|---5----7-7---5-5--2-----------------
E|--------5-5-0-3-3--0-----------------


•       6 Solo 1


E|-------------------------------------------
B|--15b17-15-12-15-12-15-12-10-12-10-8-------
G|-------------------------------------9-----
D|-------------------------------------------
A|-------------------------------------------
E|-------------------------------------------


E|--------12-x-12-x-12-x-12-14-15-14-----
B|------x--------------------------------
G|----x----------------------------------
D|--x------------------------------------
A|---------------------------------------
E|---------------------------------------


E|------15p14p12—--14p12-----12--------------------------
B|-----------------------15------15p12-------------------
G|-------------------------------------14p12-------------
D|--------------------------------------------14p12-14---
A|-------------------------------------------------------
E|-------------------------------------------------------


E|--------------------------------------------------------------------------------
B|-----10-12-14-12-10-12-14-12-10-12-14-12-10-12-14-12-10-12-14-12-10-12-14-12~---
G|--12----------------------------------------------------------------------------
D|--------------------------------------------------------------------------------
A|--------------------------------------------------------------------------------
E|--------------------------------------------------------------------------------


E|------12-15-15/17-17/19-17b19-17b19---17b19-17b19-17b19--15-17-15~--
B|---15---------------------------------------------------------------
G|-------------------------------------9------------------------------
D|--------------------------------------------------------------------
A|--------------------------------------------------------------------
E|--------------------------------------------------------------------


E|---17-15/14-14-15/12-12-14/10-10-12/9-9-10/7-7-9-7----
B|------------------------------------------------------
G|------------------------------------------------------
D|------------------------------------------------------
A|------------------------------------------------------
E|------------------------------------------------------


E|-------------------------------------------
B|--10-8-7-8-7----------8-8-10-10/12-12------
G|-------------9-7-7/9~----------------------
D|-------------------------------------------
A|-------------------------------------------
E|-------------------------------------------


•       7 Terceira Parte:

         E             Bm            D            E
E|------5p4-5p4--------5------------------------------------
B|---------------------3------------------------------------
G|-----------------4--------4-6-7---------------------------
D|---2-------------4--------4-6-7----7-7---5-5--2-----------
A|---2-------------2--------2-4-5----7-7---5-5--2-----------
E|---0-------------------------------5-5-0-3-3--0-----------


E|-------------------------------------------
B|-------------------------------------------
G|---------4-2-------------------------------
D|---4-5-6-----4-----------------------------
A|-------------------------------------------
E|-------------------------------------------


         E             Bm            D            E
E|------5p4-5p4--------5------------------------------------
B|---------------------3------------------------------------
G|-----------------4--------4-6-7---------------------------
D|---2-------------4--------4-6-7----7-7---5-5--2-----------
A|---2-------------2--------2-4-5----7-7---5-5--2-----------
E|---0-------------------------------5-5-0-3-3--0-----------


•       8 Solo Final


E|-------15-----15---15-----|----12\--12\--12\---
B|---15----15----15---------|--------------------
G|--------------------------|--------------------
D|--------------------------|--------------------
A|--------------------------|--------------------
E|--------------------------|--------------------


E|----------------------------------|--------------------------------
B|----------------------------------|-------------------------15b17--
G|---9----9-11-12-------12-x-x-12---|-----9----9-11-12---------------
D|---9----9-11-12-------12-x-x-12---|-----9----9-11-12---------------
A|---7----7-9--10-------10-x-x-10---|-----7----7-9--10---------------
E|----------------------------------|--------------------------------


E|---12--14-15-14-15-14-15—14p12----14p12--------------------------
B|-------------------------------15-------15--12-------------------
G|-----------------------------------------------14--12--14-14~~---
D|-----------------------------------------------------------------
A|-----------------------------------------------------------------
E|-----------------------------------------------------------------


E|----------------------------------------------------------------------------
B|----------------------------------------------------------------------------
G|---14b16--12--12-14-12-11----12-11------------------------------------------
D|--------------------------14-------14-12-14-12------------------------------
A|-----------------------------------------------14-13-12-10-----12-10--------
E|------------------------------------------------------------12-------12-12~-


E|-------------------------------------------
B|-------------------------------------------
G|-----------------12------------------------
D|--------------12----14~~-------------------
A|-------10-12-14----------------------------
E|---12--------------------------------------


E|---10---12--------
B|---10---12--------
G|------------------    (X11)
D|------------------
A|------------------
E|------------------


E|----3-2-0-3-2-0--------------------7------------------
B|----------------0-3---------7-8-10---10-8-7-----------
G|--------------------9--7-9------------------9--9-7-9~-
D|------------------------------------------------------
A|------------------------------------------------------
E|------------------------------------------------------


E|---15-15-14--15-14-15-14---14-11-14---12-10-12--9-7-9---8-7-8---7-5-7--
B|-----------------------------------------------------------------------
G|---12-12-11--12-11-12-11---11-9—-11---9--7--9---7-5-7---5-4-5--—4-2-4--
D|-----------------------------------------------------------------------
A|-----------------------------------------------------------------------
E|-----------------------------------------------------------------------


E|-------------------------------------------
B|---5~---3-5--------------------------------
G|-------------------------------------------
D|-------------------------------------------
A|-------------------------------------------
E|-------------------------------------------


    •    9 Final              G    A     E  D  E           E
E|-------------------------------------------------------------|
B|-------------------------------------------------------------|
G|--------------------------------------9--7—-9~----------9\---|
D|---------------------------5-5--7-----9--7—-9~----------9\---|
A|-------5-7-7--5-7--5-------5-5--7-----7--5—-7~----------7\---|
E|---5/7---------------7-5---3-3--5----------------------------|



Intro (2x)

Solo Intro

Primeira Parte:
E               Bm
We are the people one and all
D          A                 E
 From deliverance to the fall
E                    Bm
From the battle and the heat
D        A                E
 To our triumph and defeat

Refrão:
G                        D      Em
We are the young ones crying out
G                D        C
 Full of anger, full of doubt
G                 D             Em
 And we're breaking all of the rules
G            D            C
 Never choosing to be fools

Intro

Segunda Parte:
E                Bm
We are tired of being used
D               A         E
 We are constantly excused
E             Bm
In the battle and the heat
D           A         E
 In the shadow of retreat

Refrão:
G                        D      Em
We are the young ones crying out
G                D        C
 Full of anger, full of doubt
G                 D             Em
 And we're breaking all of the rules
G            D            C
 Never choosing to be fools

Intro

Solo 1

Terceira Parte:
E                 Bm
We are the people one and all
D         A               E
 From deliverance to the fall
E                Bm
From the bitter to the brave
D          A               E
 From the cradle to the grave

Refrão:
G                        D      Em
We are the young ones crying out
G                D        C
 Full of anger, full of doubt
G                 D             Em
 And we're breaking all of the rules
G            D            C
 Never choosing to be fools

Intro

Solo Final

Intro

Final
  • 1
  • 2
  • 3
  • 4
  • 5
  • 6
  • 7
  • 8
  • 9
  • 10
  • 11
  • 12
    Acordes para:

      0 comentários

        mostrar mais comentários

        Conseguiu tocar?

        9tocaram0ainda não

        Grave um vídeo tocando Breaking all the Rules e mande pra gente!

        00:00 / 00:00
        outros vídeos desta música
        repetirqualidadeautomática
        • automática
        Outro vídeos desta música
          00:00 / 00:00
          automática
          • automática
          Acordes para:violão e guitarra
          dificuldadeexibiçõescontribuições
          1 versão de Tab de baixoexibiçõescontribuições
          3 versões de Guitar Proformatodownloadscontribuição
          fecharplay/pause subir/descer velocidade
            acordes
            fechar
            OK
            Feedback