Cifra Club

Paz Na Guerra

PG

Cifra: Principal (violão e guitarra)
tom: C
G5
Dor, tristeza, solidão
D#5                     F5   
A mágoa, o ódio, o rancor e a depressão
G5
O homem vive à beira do seu próprio caos
D#5                 F5
Não considera o futuro e perde a salvação

G5
Ele é tão jovem e já pratica o mal
D#5                  F5
Ela é pequena e aprende a ser tão sensual
G5
O ser humano vive um tempo irracional
D#5                    F5
Não se preocupa com o dia do juízo

RIFF 1
Deus mostre ao mundo o caminho
RIFF 2
Deus mostre ao mundo a verdade
RIFF 2
Deus és o dono da vida
RIFF 2
Quem te conhecer viverá a eternidade

RIFF 2                        RIFF 3 o fim
Quem te conhecer viverá a eternidade

RIFF 1 BAIXO
Foi pelos jovens, pelos velhos e toda uma nação

Os braços abertos indicam ao mundo a direção

RIFF 1 BAIXO
Quem não o conhecer,viverá na eterna prisão

Que faz do homem escravo de um mundo sem perdão

G5
Não foi por linhas tortas
Bb5                 C5
Que ele escreveu a nossa história
G5
Não poupou ao seu próprio filho
D#5                 F5
Para morrer e mudar meu futuro

RIFF 2 BAIXO
Não temo a morte, nem as trevas

Jesus é a paz em meio as guerras

Jesus é a paz 

RIFF 1                              RIFF 2
E|--------------------------       |----------------------------------
B|--------------------------       |----------------------------------
G|-------------------3--5---       |------------------8---------------
D|---5---------------3--5---       |--5---------------8--3------------
A|---5----1-0-1-0--- 1--3---       |--5----1-0-1-0----6--3------------
E|---3-----------------------      |--3------------------1------------

Riff 3
|---------------------------------------------------------
|---------------------------------------------------------
|---------------------------------------------------------
|--4X------8-7-5---NA ULTIMA VEZ-3---5--------------------
|--------------------------------3---5--------------------
|--------------------------------1---3--------------------

RIFF 1 BAIXO
|--6X--10-10-12----NA SETIMA----15-14---------------------
|---------------------------------------------------------
|---------------------------------------------------------
|---------------------------------------------------------

RIFF 2 BAIXO
|---------------------------------------------------------
|---------------------------------------------------------
|--------------1-3----------------------------------------
|---3----6-5-3--------------------------------------------
00:00 / 00:00
Outros vídeos desta música
Repetir
Outros vídeos desta música
Composição de Leandro Aguiari / PG
Colaboração e revisão:
  • daniel venudo
33.483 exibições
    • ½ Tom
    • A
    • Bb
    • B
    • C
    • Db
    • D
    • Eb
    • E
    • F
    • F#
    • G
    • Ab
  • Adicionar à lista

    0 comentários

    Ver todos os comentários

    Entre para oCifra Club PRO

    Tenha acesso a benefícios exclusivos no App e no Site

    • Chega de anúncios

    • Prioridade de compra em lançamentos

    • Mais recursos no app do Afinador

    • Atendimento Prioritário

    • Descontos nos produtos Cifra Club

    • Ajude a produzir mais conteúdo

    00:00 / 00:00

    Cifra Club Pro

    Aproveite o Cifra Club com benefícios exclusivos e sem anúncios
    Cifra Club Pro
    Aproveite o Cifra Club com benefícios exclusivos e sem anúncios
    OK