Cifra Club

That Funny Feeling

Phoebe Bridgers

Cifra: Principal (violão e guitarra)
tom: B (forma dos acordes no tom de G) Capotraste na 4ª casa
[Intro] G

[Primeira Parte]

  G                     C/G       G
Stunning 8k resolution meditation app
    G
In honor of the revolution
C/G                   G
It's half off at the gap
 Am             D/A
Deadpool's self-awareness
        Em               C/G
Loving parents, harmless fun
     Am              D/A
The backlash to the backlash
       Em                C/G
To the thing that’s just begun

[Riff]

     C/G
E|---0-0------0---0-0-------0-0------0-0-0--|
B|---1-1------1---1-1-------1-1------1-1-1--|
G|---0-0------0---0-0-------0-0------0-0-0--|
D|---2-2------2p0-0-0h2-----2-2------2-2-2--|
A|---3-3------3---3-3-------3-3------3-3-3--|
E|---3-3------3---3-3-------3-3------3-3-3--|

[Refrão]

 G            Am                      A9
There it is again, that funny feeling
Em          C/G
That funny feeling
 G            Am                      A9
There it is again, that funny feeling
Em          C/G
That funny feeling

[Segunda Parte]

     G
The surgeon general's pop-up shop
 C/G           G
Robert iger's face
 G                       C/G             G
Discount etsy agitprop, bugles' take on race
 Am             D/A
Female colonel sanders
     Em             C/G
Easy answers, civil war
     Am                 D/A
The whole world at your fingertips
    Em             C/G
The ocean at your door

[Riff]

     C/G
E|---0-0------0---0-0-------0-0------0-0-0--|
B|---1-1------1---1-1-------1-1------1-1-1--|
G|---0-0------0---0-0-------0-0------0-0-0--|
D|---2-2------2p0-0-0h2-----2-2------2-2-2--|
A|---3-3------3---3-3-------3-3------3-3-3--|
E|---3-3------3---3-3-------3-3------3-3-3--|

     G
The live-action lion king
     C/G            G
The pepsi halftime show
 G                             C/G            G
Twenty-thousand years of this, seven more to go
 Am         D/A
Carpool karaoke
      Em           C/G
Steve aoki, logan paul
   Am               D/A
A gift shop at the gun range
         Em             C/G
A mass shooting at the mall

[Riff]

     C/G
E|---0-0------0---0-0-------0-0------0-0-0--|
B|---1-1------1---1-1-------1-1------1-1-1--|
G|---0-0------0---0-0-------0-0------0-0-0--|
D|---2-2------2p0-0-0h2-----2-2------2-2-2--|
A|---3-3------3---3-3-------3-3------3-3-3--|
E|---3-3------3---3-3-------3-3------3-3-3--|

[Refrão]

 G            Am                      A9
There it is again, that funny feeling
Em          C/G
That funny feeling
 G            Am                      A9
There it is again, that funny feeling
Em          C/G
That funny feeling

[Terceira Parte]

 G
Reading pornhub's terms of service
 C/G          G
Going for a drive
      G
And obeying all the traffic laws
    C/G             G
In grand theft auto v
 Am        D/A
Full agoraphobic
 Em                   C/G
Losing focus, cover blown
   Am              D/A
A book on getting better
        Em            C/G
Hand-delivered by a drone

[Riff]

     C/G
E|---0-0------0---0-0-------0-0------0-0-0--|
B|---1-1------1---1-1-------1-1------1-1-1--|
G|---0-0------0---0-0-------0-0------0-0-0--|
D|---2-2------2p0-0-0h2-----2-2------2-2-2--|
A|---3-3------3---3-3-------3-3------3-3-3--|
E|---3-3------3---3-3-------3-3------3-3-3--|

 G                     C/G            G
Total disassociation, fully out your mind
 G                         C/G             G
Googling "derealization", hating what you find
Am         D/A
 That unapparent
       Em            C/G
Summer air in early fall
     Am          D/A
The quiet comprehending
         Em          C/G
Of the ending of it all

[Riff]

     C/G
E|---0-0------0---0-0-------0-0------0-0-0--|
B|---1-1------1---1-1-------1-1------1-1-1--|
G|---0-0------0---0-0-------0-0------0-0-0--|
D|---2-2------2p0-0-0h2-----2-2------2-2-2--|
A|---3-3------3---3-3-------3-3------3-3-3--|
E|---3-3------3---3-3-------3-3------3-3-3--|

[Refrão]

 G            Am                      A9
There it is again, that funny feeling
Em          C/G
That funny feeling
 G            Am                      A9
There it is again, that funny feeling
Em          C/G
That funny feeling

( G  Am  F  C/G )
( G  Am  F  C/G )

[Final]

 G
Hey, what can you say?
        Am
We were overdue
             F
But it'll be over soon
     C/G
You wait

 G
Hey, what can you say?
        Am
We were overdue
             F
But it'll be over soon
      C/G
Just wait

Ba-da-da ba-da-da

Ba-da-da-da-da-da-da

 G
Hey, what can you say?
        Am
We were overdue
             F
But it'll be over soon
     C/G
You wait

Ba-da-da ba-da-da

Ba-da-da-da-da-da-da
00:00 / 00:00
Outros vídeos desta música
Repetir
Outros vídeos desta música
Composição de Bo Burnham
Colaboração e revisão:
  • Catchuro
897 exibições
    • ½ Tom
    • A
    • Bb
    • B
    • C
    • Db
    • D
    • Eb
    • E
    • F
    • F#
    • G
    • Ab
  • Adicionar à lista

    0 comentários

    Ver todos os comentários

    Entre para oCifra Club PRO

    Tenha acesso a benefícios exclusivos no App e no Site

    • Chega de anúncios

    • Prioridade de compra em lançamentos

    • Mais recursos no app do Afinador

    • Atendimento Prioritário

    • Descontos nos produtos Cifra Club

    • Ajude a produzir mais conteúdo

    00:00 / 00:00

    Cifra Club Pro

    Aproveite o Cifra Club com benefícios exclusivos e sem anúncios
    Cifra Club Pro
    Aproveite o Cifra Club com benefícios exclusivos e sem anúncios
    OK