Cifra Club

Flor

Pimentas do Reino

Cifra: Principal
exibições 85.487
Tom: G
INTRO: G7M C7 Bm Bm/G# G7M C7 D

E|-------0-----|-------0-----|-------0-----|-------0-----|-------0-----|-------0-----|-------0-----|
B|---3-----3---|---1-----1---|---3-----3---|---3-----3---|---3-----3---|---1-----1---|---3-----3---|
G|-4---4-----4-|-3---3-----3-|-4---4-----4-|-4---4-----4-|-4---4-----4-|-3---3-----3-|-2---2-----2-|
D|-------------|-------------|-------------|-------------|-------------|-------------|-0-----------|
A|-------------|-3-----------|-2-----------|-------------|-------------|-3-----------|-------------|
E|-3-----------|-------------|-------------|-4-----------|-3-----------|-------------|-------------|

E|-------2-----|-------0-----|-------0-----|-------0-----|-------0-----|-------0-----|---0-----0---|
B|---1-----1---|---3-----3---|---1-----1---|---3-----3---|---3-----3---|---3-----3---|---1-----3---|
G|-2---2-----2-|-4---4-----4-|-3---3-----3-|-4---4-----4-|-4---4-----4-|-4---4-----4-|---3-----2---|
D|-0-----------|-------------|-------------|-------------|-------------|-------------|---2-----0---|
A|-------------|-------------|-3-----------|-2-----------|-------------|-------------|---3---------|
E|-------------|-3-----------|-------------|-------------|-4-----------|-3-----------|-------------|

    D                        D7M                           Em
O amor é uma semente de uma flor que brota na gente pra cuidar
            C7       D
Com muito carinho assim...
       D                        D7M                     Em
Com paixão e com amizade com paixão e cumplicidade, coração
            C7     D
Fértil como um jardim...

REFRÃO

  G7M           C7         Bm
O amor esse desafio quando for o tempo
   Bb°    G7M           C7         Bm
de frio e você chega até pensar no fim
     G7M            C7M
É só crer e ter esperança
     Bm              Bb°
Depender como uma criança
        G7M             C7     D
De quem fez tudo desse jeito assim...

G7M C7 Bm Bm/G# G7M C7

E|-------0-----|-------0-----|-------0-----|-------0-----|-------0-----|--0----------|
B|---3-----3---|---1-----1---|---3-----3---|---3-----3---|---3-----3---|--1----------|
G|-4---4-----4-|-3---3-----3-|-4---4-----4-|-4---4-----4-|-4---4-----4-|--3----------|
D|-------------|-------------|-------------|-------------|-------------|--2----------|
A|-------------|-3-----------|-2-----------|-------------|-------------|--3----------|
E|-3-----------|-------------|-------------|-4-----------|-3-----------|-------------|

      D                           D7M                         Em
Essa flor um fracasso certo para quem der uma de esperto e querer
             C7     D
sem trabalho só prazer...
        D                              D7M                           Em
Se envolver e covarde ausente não investir, que ego impaciente e infeliz
                 C7     D
Assim a flor não vai viver...

SOLO: G7M C7 Bm Bm/G# G7M C7 D

REFRÃO

         G7M                 C7            Bm            Bb°         G7M
Espera o sol trazendo a primavera pra mostrar q isso tudo era pra entender
                     Bm Bb° G7M C7 D
Ela só é forte assim
Acordes para:
    Composição: Pimentas do ReinoColaboração e revisão:

    0 comentários

      mostrar mais comentários

      Conseguiu tocar?

      7tocaram0ainda não

      Grave um vídeo tocando Flor e mande pra gente!

      00:00 / 00:00
      outros vídeos desta música
      repetirqualidadeautomática
      Outro vídeos desta música
        00:00 / 00:00
        automática
        OK