Cifra Club

Ho-Hum

Pinback

Cifra: Principal (violão e guitarra)
Selo Cifra Club: esta cifra foi revisada para atender aos critérios oficiais da nossa Equipe de Qualidade.
tom: Bm
E|E|-------------------------------------------------------------------------------||
                             Ho HUM - Pinback
E|E|-------------------------------------------------------------------------------||
Tabbed by: Justin

Tuning: drop D (D A D G B E)

Note: Not 100% (not even 80%) but this is how I play it and it sounds good to me  Enjoy.


"You need to fuckin' get down here!"


    |       |        |       |
E|--------------------------------------|
B|------3-------3----------------------.|
G|--------4-------3----0----------------|
D|----4-------3----------4---5p4---4----|
A|--2-------1--------------5-----5-----.|
E|-------------------0------------------|


   "It's a fact, I know it.."




     |     |     |     |
E|------------------------------|
B|------3-----2-----8-----8----.|
G|------4-----2-----9-----9-----|
D|------4-----4-----9--7--9-----|
A|---2-----0-----7-------------.|
E|------------------------------|

   "No one's gonna take the pair..."


      |       |       |       |
E|----------------------------------------|
B|----------------------------------------|
G|----------------------------------------|
D|--------0h7-----0h7-----0h7-------------|
A|------5-------5-------5-------5-4h5p4---|
E|----0-----------------------------------|



     |       |       |       |
E|------------------------------------|
B|---------------------------0-0-0---.|
G|---------------------------0-0-0----|
D|---4-4-4-4-4-5-9\7-4-4-4---4-4-4----|
A|---0-0-0-0-0-------2-2-2-----------.|
E|---0-0-0-0-0-------2-2-2---5-5-4----|


   "I want to breathe in blue"




************************************

| /   slide up
| \   slide down
| h   hammer-on
| p   pull-off
| ~   vibrato
| +   harmonic
| x   Mute note
| b   Bend
| pb  Pre-bend
| br  Bend release
| pbr Pre-bend release
| brb Bend release bend
Outros vídeos desta música
    2 exibições
      • ½ Tom
      • Am
      • Bbm
      • Bm
      • Cm
      • C#m
      • Dm
      • Ebm
      • Em
      • Fm
      • F#m
      • Gm
      • G#m
    • Adicionar à lista

    Afinação da cifra

    Afinador online

      0 comentários

      Ver todos os comentários

      Conseguiu tocar?

      0Tocaram0Ainda não

      Grave um vídeo tocando Ho-Hum e nos envie!

      Toque também

      1. Imagem do artista Built To SpillCarry The Zero Built To Spill
      2. Imagem do artista Minus The BearAbsinthe Party At The Fly Honey Warehouse Minus The Bear
      3. Imagem do artista Rob CrowSo Way Rob Crow
      4. Imagem do artista The American Analog SetChoir Vandals The American Analog Set

      Entre para o Cifra Club PRO

      Tenha acesso a benefícios exclusivos no App e no Site

      • Chega de anúncios

      • Badges exclusivas

      • Mais recursos no app do Afinador

      • Atendimento Prioritário

      • Aumente seu limite de lista

      • Ajude a produzir mais conteúdo

      Cifra Club Pro

      Aproveite o Cifra Club com benefícios exclusivos e sem anúncios
      Cifra Club Pro
      Aproveite o Cifra Club com benefícios exclusivos e sem anúncios
      Ops (: Contenido disponible sólo en portugués.
      OK