Cifra Club

Another Brick In The Wall

Pink Floyd

Cifra: Principal
exibições 966.728
Tom: A#
E|--------------------------------------|         
B|--------------------------------------|         
G|--0-2-3-2-0-2-3-2---------------------|         
D|--0-2-3-2-0-2-3-2---------------------|        
A|--------------------------------------|        
E|--------------------------------------|     

E|--------------------------------------|         
B|--------------------------------------|         
G|--0-2-3-2-0-2-3-----------------------|         
D|--0-2-3-2-0-2-3-----------------------|        
A|--------------------------------------|        
E|--------------------------------------|       

 Dm
Daddy's flown across the ocean
 Dm
Leaving just a memory
Dm
A snapshot in the family album
 Dm                                G
Daddy what else did you leave for me
 Gm                               Dm
Daddy what d'ya leave behind for me

F                  C                   Dm
All in all it was just a brick in the wall
F                 C                       Dm
All in all it was all just bricks in the wall

 Dm
We don't need no education
 Dm
We don't need no thought control
 Dm
No dark sarcasm in the classroom
 Dm                         G
Teachers leave these kids alone
 G                           Dm
Hey teacher leave these kids alone

F                  C                   Dm
All in all it was just a brick in the wall
F                 C                       Dm
All in all it was all just bricks in the wall

Dm
I don't need no arms around me
Dm
I don't need no drugs to calm me
Dm
I have seen the writing on the wall
 Dm                            G
Don't think I need anything at all
                                  Dm
No don't think I need anything at all

F                  C                   Dm
All in all it was just a brick in the wall
F                 C                       Dm
All in all it was all just bricks in the wall


[Solo]

E|------------10-----------------------------------------------------|
B|-13p10--10----13b(15)---------------10-10--------------------------|
G|------12--12------------------------10-10--------------------------|
D|-------------------------------------------------------------------|
A|-------------------------------------------------------------------|
E|-------------------------------------------------------------------|

E|-------------------------------------------------------------------|
B|-13h15-b(17)-13-------13p10-10-------------------------------------|
G|--------------------------12---------------------------------------|
D|-------------------------------------------------------------------|
A|-------------------------------------------------------------------|
E|-------------------------------------------------------------------|

E|-------------------------------------------------------------------|
B|-------------------------------------------------------------------|
G|-10p9-9-----12-----------------------------------------------------|
D|----12-10/12---12--------------------------------------------------|
A|-------------------------------------------------------------------|
E|-------------------------------------------------------------------|

E|-------------------------------------------------------------------|
B|--10-10-------10--10-----10--12--10--------------------------------|
G|--10-10-12----10--10-12--10--12--10--------------------------------|
D|--------12-----------12--------------------------------------------|
A|-------------------------------------------------------------------|
E|-------------------------------------------------------------------|

E|-------13b(15)-13-12-13--------------------------------------------|
B|-----x------------------13h15-15b(17)b(18)-13-15-------------------|
G|---x---------------------------------------------------------------|
D|-x-----------------------------------------------------------------|
A|-------------------------------------------------------------------|
E|-------------------------------------------------------------------|

E|-------10----------------------------------------------------------|
B|-----10--13p10-----------------------------------------------------|
G|-12b(14)-----12-12---12p10-10--------------------------------------|
D|--------------------------12----12-12p10-10------------------------|
A|---------------------------------------12----10-10p8-------8-------|
E|----------------------------------------------------10-10---10-8-10|

E|-------------------------------------------------------------------|
B|-----------------5h6p5--------------------------6------------------|
G|---------5--7---------7---7-p-5------5--5--7p5---------------------|
D|----/7--------------------------7----------------------------------|
A|-------------------------------------------------------------------|
E|-------------------------------------------------------------------|

E|-------------------------------------15b(17)-13-12-----------------|
B|--13b(15)---13h15b(17)p13------------------------------------------|
G|-------------------------------------------------------------------|
D|-------------------------------------------------------------------|
A|-------------------------------------------------------------------|
E|-------------------------------------------------------------------|

E|-----13-12--15b(17)rb(15)b(17)rb(15)b(17)rb(15)-13-----------------|
B|-/15---------------------------------------------15----------------|
G|-------------------------------------------------------------------|
D|-------------------------------------------------------------------|
A|-------------------------------------------------------------------|
E|-------------------------------------------------------------------|

E|--18b(20)-------20b(22)---20--17---20--17--------------------------|
B|-------------------------------------------------------------------|
G|-------------------------------------------------------------------|
D|-------------------------------------------------------------------|
A|-------------------------------------------------------------------|
E|-------------------------------------------------------------------|

E|-------------------------------------------------------------------|
B|----------------------------------13-12---12--12---10--------------|
G|-10--10--10-----------------------12-12---12--12---10--------------|
D|-------------12---------------12/14---------------(10)-------------|
A|-------------------------------------------------------------------|
E|-------------------------------------------------------------------|

E|-------------------------------------------------------------------|
B|--x--x--12p10------------------------------------------------------|
G|--x--x--12p10------------------------------------------------------|
D|------------12-----------------------------------------------------|
A|---------------------------------10---8---10---8-------------------|
E|-----------------------------------------------------10------------|
Acordes para:

    0 comentários

      mostrar mais comentários

      Conseguiu tocar?

      101tocaram0ainda não

      Grave um vídeo tocando Another Brick In The Wall e mande pra gente!

      00:00 / 00:00
      outros vídeos desta música
      repetirqualidadeautomática
      Outro vídeos desta música
        00:00 / 00:00
        automática
        Capítulos
        • Início - Vinheta Dia Mundial do Rock
        • Tocando a música
        • Dicas e acorde da Primeira Parte
        • Tocando Primeira Parte
        • Exercícios de Preparação
        • Ensinando Primeira Parte: Guitarra 1
        • Ensinando Primeira Parte: Guitarra 2
        • Acordes da Segunda Parte
        • Tocando Segunda Parte
        • Ensinando Segunda Parte: Guitarra 1
        • Ensinando Segunda Parte: Guitarra 1 (Parte 1)
        • Ensinando Segunda Parte: Guitarra 1 (Parte 2 e 3)
        • Ensinando Segunda Parte: Guitarra 1 (Parte 4 - 7)
        • Power Chords Segunda Parte: Guitarra 2
        • Ensinando Segunda Parte: Guitarra 2
        • Dicas para o Solo
        • Tocando Solo
        • Dicas - Pedais
        • Ensinando Solo (Parte 1)
        • Ensinando Solo (Parte 2)
        • Ensinando Solo (Parte 3)
        • Ensinando Solo (Parte 4)
        • Ensinando Solo (Parte 5)
        • Ensinando Solo (Parte 6)
        • Ensinando Solo (Parte 7)
        • Ensinando Solo (Parte 8)
        • Ensinando Solo (Parte 9)
        • Ensinando Solo (Parte 10)
        • Ensinando Solo (Parte 11)
        • Tocando Solo (Tablatura)
        • Encerramento
        OK