Notificações Amigos pendentes

      Pink Floyd

      Another Brick In The Wall

      819.184 exibições
      Tom: F
      
      E|------------------|         e|-----------------
      B|------------------|         B|-----------------
      G|--0-2-3-2-0-2-3-2-|         G|--0-2-3-2-0-2-3--
      D|--0-2-3-2-0-2-3-2-|  (Dm)   D|--0-2-3-2-0-2-3--     (Dm)
      A|------------------|         A|-----------------
      E|------------------|         E|-----------------
      
      
      (parte 1)
      Dm
      Daddy's flown across the ocean
      Dm
      Leaving just a memory
      Dm
      A snapshot in the family album
      Dm                                G
      Daddy what else did you leave for me
      Gm                               Dm
      Daddy what d'ya leave behind for me
      
      (refrão)
      F                C                    Dm
      All in all it was just a brick in the wall
      F                 C                      Dm
      All in all it was all just bricks in the wall
      
      (parte 2)
      Dm
      We don't need no education
      Dm
      We don't need no thought control
      Dm
      No dark sarcasm in the classroom
      Dm                               G
      Teachers leave these kids alone
      G                            Dm
      Hey teacher leave these kids alone
      
      (refrão)
      F                     C                   Dm
      All in all it's just it, another brick in the wall
      F                       C                   Dm
      All in all you're just it, another brick in the wall
      
      (parte 3)
      Dm                               Dm
      I don't need no arms around me
      Dm                                Dm
      I don't need no drugs to calm me
      Dm                                Dm
      I have seen the writing on the wall
      Dm                             G
      Don't think I need anything at all
                                        Dm
      No don't think I need anything at all
      
      (refrão)
      F                 C                      Dm
      All in all it was all just bricks in the wall
      F                   C                      Dm
      All in all you were all just bricks in the wall
      
      (Essa aqui é aquela viradinha que tem antes do refrão)
      
      
      e|-10-8-10-10-8-8-7-7-7-5-|
      B|-10-8-10-10-8-8-8-8-8-6-|
      G|-10-9-10-10-9-9-7-7-7-5-|
      D|------------------------|
      A|------------------------|
      E|------------------------|
      
      
      (solo)
      
      E|------------10-----------------------------------------------------
      B|-13p10--10----13b(15)---------------10-10--------------------------
      G|------12--12------------------------10-10--------------------------
      D|-------------------------------------------------------------------
      A|-------------------------------------------------------------------
      E|-------------------------------------------------------------------
      
      
      E|-------------------------------------------------------------------
      B|-13h15-b(17)-13-------13p10-10-------------------------------------
      G|--------------------------12---------------------------------------
      D|-------------------------------------------------------------------
      A|-------------------------------------------------------------------
      E|-------------------------------------------------------------------
      
      
      E|-------------------------------------------------------------------
      B|-------------------------------------------------------------------
      G|-10p9-9-----12-----------------------------------------------------
      D|----12-10/12---12--------------------------------------------------
      A|-------------------------------------------------------------------
      E|-------------------------------------------------------------------
      
      
      E|-------------------------------------------------------------------
      B|--10-10-------10--10-----10--12--10--------------------------------
      G|--10-10-12----10--10-12--10--12--10--------------------------------
      D|--------12-----------12--------------------------------------------
      A|-------------------------------------------------------------------
      E|-------------------------------------------------------------------
      
      
      E|-------13b(15)-13-12-13--------------------------------------------
      B|-----x------------------13h15-15b(17)b(18)-13-15-------------------
      G|---x---------------------------------------------------------------
      D|-x-----------------------------------------------------------------
      A|-------------------------------------------------------------------
      E|-------------------------------------------------------------------
      
      
      E|-------10----------------------------------------------------------
      B|-----10--13p10-----------------------------------------------------
      G|-12b(14)-----12-12---12p10-10--------------------------------------
      D|--------------------------12----12-12p10-10------------------------
      A|---------------------------------------12----10-10p8-------8-------
      E|----------------------------------------------------10-10---10-8-10
      
      
      E|-------------------------------------------------------------------
      B|-----------------5h6p5--------------------------6------------------
      G|---------5--7---------7---7-p-5------5--5--7p5---------------------
      D|----/7--------------------------7----------------------------------
      A|-------------------------------------------------------------------
      E|-------------------------------------------------------------------
      
      
      E|-------------------------------------15b(17)-13-12-----------------
      B|--13b(15)---13h15b(17)p13------------------------------------------
      G|-------------------------------------------------------------------
      D|-------------------------------------------------------------------
      A|-------------------------------------------------------------------
      E|-------------------------------------------------------------------
      
      
      E|-----13-12--15b(17)rb(15)b(17)rb(15)b(17)rb(15)-13-----------------
      B|-/15---------------------------------------------15----------------
      G|-------------------------------------------------------------------
      D|-------------------------------------------------------------------
      A|-------------------------------------------------------------------
      E|-------------------------------------------------------------------
      
      
      E|--18b(20)-------20b(22)---20--17---20--17--------------------------
      B|-------------------------------------------------------------------
      G|-------------------------------------------------------------------
      D|-------------------------------------------------------------------
      A|-------------------------------------------------------------------
      E|-------------------------------------------------------------------
      
      
      E|-------------------------------------------------------------------
      B|----------------------------------13-12---12--12---10--------------
      G|-10--10--10-----------------------12-12---12--12---10--------------
      D|-------------12---------------12/14---------------(10)-------------
      A|-------------------------------------------------------------------
      E|-------------------------------------------------------------------
      
      
      E|-------------------------------------------------------------------
      B|--x--x--12p10------------------------------------------------------
      G|--x--x--12p10------------------------------------------------------
      D|------------12-----------------------------------------------------
      A|---------------------------------10---8---10---8-------------------
      E|-----------------------------------------------------10------------
      
        Composição: Roger WatersColaboração e revisão:
        • guicaseiro10
        • RangeLang
        • Mauricio [VgB]
        • Silva
        • +5

        Comentários 21

        140 .
        • Leo Leo: Em 09/12/2015 07:31

          Cifra vergonhosa essa ai, toda errada, da até gastura. kkk

          • Elias Elias: Em 21/12/2015 14:56

            fala ai correção pra nois mandar massa!

        • torquemada torquemada: Em 06/07/2015 03:02

          Embora haja o mito de que Pink Floyd é rock progressivo e que seja complicado tocar, isso é só ilusão. Pink Floyd é simples em harmonia.

        • arthurvf011 arthurvf011: Em 22/01/2014 01:27

          a tablatura do solo parece que ta diferente to que ele mostrou na video aula. to errado ou nao?

        • lucasviaana lucasviaana: Em 31/12/2013 17:18

          chegou a hora de aprender o solo hehe

        • vitor.olegario.3 vitor.olegario.3: Em 11/08/2013 17:23

          No geral os acordes são fáceis, o difícil mesmo é o ritmo mas da pra pegar tranquilo ouvindo a música e tocando junto.. Só falta o solo p eu

        • vinyhendrix vinyhendrix: Em 09/07/2013 17:04

          certin aki na pedaleira g1N fiz o efeito de base e distorçao solo bem parecido ^^ agr é so tocar na velocidade da musica kkkk

          • wesleyguitar94 wesleyguitar94: Em 05/08/2013 12:55

            opa vc pode me passar a config do pedal? Obrigado xD

        • Geovani Geovani: Em 06/01/2013 13:19

          Parece extremamente fácil. Parece...

        140 cancelar
        0:00 / 0:00
        Esta versão de cifra não é usada na videoaula. Exiba a cifra correta.
        2 versões de baixo exibições contribuição e correção
        1 versão de bateria exibições contribuição e correção
        1 versão de gaita exibições contribuição e correção
        2 versões de partiturasformatodownloadscontribuição
        play/pausefechar subir/descer velocidade
        6ª corda E5ª corda A4ª corda D3ª corda G2ª corda B1ª corda E
          acordes
          publicidade
          fechar
          ok