Cifra Club

Comfortably Numb

Pink Floyd

Cifra: Solo (violão e guitarra)
exibições 80.408
Tom: C
Solo 1:

(Parte 1)

E|-x-x-14-----------------------------------|
B|-x-x--------------------------------------|
G|------------------------------------------|
D|------------------------------------------|
A|------------------------------------------|
E|------------------------------------------|

E|-14b15r14---------------------------------|
B|----------15b17r--15-14-14----------------|
G|---------------------------14-------------|
D|------------------------------14\----12---|
A|------------------------------------------|
E|------------------------------------------|

(Parte 2)

E|---14b15r14-------------------------------|
B|-x----------15b17r-15p14------------------|
G|-------------------------14---------------|
D|----------------------------14\12-11------|
A|-------------------------------------14-12|
E|------------------------------------------|

(Parte 3)

E|------------------------------------------|
B|------------------------------------------|
G|-/12~---11-9--7--11p9--9\7--7~------------|
D|------------------------------------------|
A|------------------------------------------|
E|------------------------------------------|

E|------------------------------------------|
B|------------------------------------------|
G|-9p7---7-9--11--11b12~--------------------|
D|-----9------------------------------------|
A|------------------------------------------|
E|------------------------------------------|

(Parte 4)

E|-----15p14-12-----------------------------|
B|---x----------15p12-----------------------|
G|-x------------------12--------------------|
D|-----------------------12~---10\9-9~------|
A|------------------------------------------|
E|------------------------------------------|

E|------------------------------------------|
B|------------------------------------------|
G|-------------9b12----9b11rb11r9p7---------|
D|-9h10p9\7~--------------------------7/9\7~|
A|------------------------------------------|
E|------------------------------------------|

Solo 2:

(Parte 1)

E|------------------------------------------|
B|------------------------------------------|
G|-7--9--9b11~---9b11r9p7---7-9~~p7-----7---|
D|------------------------9----------9------|
A|------------------------------------------|
E|------------------------------------------|

E|-----------------------------------10-----|
B|-------10----10~-12-12b15r12p10-12--------|
G|-7/11-----11------------------------------|
D|------------------------------------------|
A|------------------------------------------|
E|------------------------------------------|

E|------------------------------------------|
B|-----------------------7------------------|
G|-7--9--9b11r9p7------9---9-11-9-7---------|
D|----------------9~---9------------9~------|
A|------------------------------------------|
E|------------------------------------------|

(Parte 2)

E|------------------------------------------|
B|------------------------------------------|
G|------------7~----------------------------|
D|-/7--7-7--9----9p7-9~---------------------|
A|------------------------------------------|
E|------------------------------------------|

E|-----7--9--9b10r9p7----7------------------|
B|---x----------------10---10b12~----10p7---|
G|-x--------------------------------------9-|
D|------------------------------------------|
A|------------------------------------------|
E|------------------------------------------|

(Parte 3)

E|--------7---------------------------------|
B|------7---10p7----------------------------|
G|-9b11----------9-b11r9p7---9-7------------|
D|-------------------------9-----9-7--------|
A|-----------------------------------9-8-7\5|
E|------------------------------------------|

E|------------------------------------------|
B|------------------------------------------|
G|------------------------------------------|
D|------------------------------------------|
A|---5~-------------------------------------|
E|-7----------------------------------------|

(Parte 4)

E|-----------------------7------------------|
B|---------------------7---7--10p7----------|
G|-7p0-7p0-7~---x-9b11-------------9--------|
D|------------------------------------------|
A|------------------------------------------|
E|------------------------------------------|

E|------------------------------------------|
B|------------------------------------------|
G|-b11r9p7---9---7b-------------------------|
D|---------9---9-----9p7--------------------|
A|-----------------------9-8-7b--5--7p5-----|
E|--------------------------------------7-5-|

E|------------------------------------------|
B|------------------------------------------|
G|---------------------------------7---7----|
D|------------------7--7--7~---9p7---9------|
A|-5~---7p5---5-7/9-------------------------|
E|----------7-------------------------------|

E|--------7---------------------------------|
B|------7---10------10----------------------|
G|-9b11--------9b11----7----9-x-x-----------|
D|------------------------------------------|
A|------------------------------------------|
E|------------------------------------------|

(Parte 5)

E|--------7---------------------------------|
B|------7---10p7----------------------------|
G|-9b11----------9-b11r9p7---9-7------------|
D|-------------------------9-----9-7--------|
A|-----------------------------------9-8-7\5|
E|------------------------------------------|

E|------------------------------------------|
B|------------------------------------------|
G|------------------------------------------|
D|------------------------------------------|
A|---5--------------------------------------|
E|-7---5b-----------------------------------|

(Parte 6)

E|------------------------------------------|
B|-7b-------x-x-7b-----x-x-7b-----7-x-x-----|
G|-7b-------x-x-7b-----x-x-7b-----7-x-x-----|
D|-----9~-----------9~---------9~-----------|
A|------------------------------------------|
E|------------------------------------------|

(Parte 7)

E|----------------------7-------------------|
B|------------------------10p7-10b12~-------|
G|-9b11r9p7---7-9b11~~----------------------|
D|----------9-------------------------------|
A|------------------------------------------|
E|------------------------------------------|

(Parte 8)

E|--------7---------------------------------|
B|------7---10p7----------------------------|
G|-9b11----------9-b11r9p7---9-7---7--------|
D|-------------------------9-----9---9-7-9p7|
A|------------------------------------------|
E|------------------------------------------|

E|------------------------------------------|
B|-------------------7----------------------|
G|-------------------7----------------------|
D|---7--------------------------------------|
A|-9---9-7-9-7------------------------------|
E|-------------7-7~-------------------------|

(Parte 9)

E|------------------------------------------|
B|-----7~~------7~~---------------7---------|
G|-x-x-7~~--x-x-7~~--x-x-7~~--x-x-7-x-x-9---|
D|-----------------------7~~----------------|
A|------------------------------------------|
E|------------------------------------------|

E|------------------------------------------|
B|---------7b----------------------7b-------|
G|-9p7-x-x-7b----------7b----------7b-------|
D|-------------9p7-x-x-7b--9p7-x-x----------|
A|------------------------------------------|
E|------------------------------------------|

E|------------------------------------------|
B|---------------------7b-------------------|
G|---------7b----------7b--9p7-x-x-x-x------|
D|-9p7-x-x-7b--9p7-x-x----------------------|
A|------------------------------------------|
E|------------------------------------------|

E|------------------------------------------|
B|-7----7-----7--7-----7--7-----7--7-----7--|
G|-7--x-7-x-x-7--7-x-x-7--7-x-x-7--7-x-x-7--|
D|------------------------------------------|
A|------------------------------------------|
E|------------------------------------------|

E|------------------------------------------|
B|-7----------------------------------------|
G|-7-x-x------------------------------------|
D|------------------------------------------|
A|------------------------------------------|
E|------------------------------------------|

(Parte 10)

E|-17b19~---19--21--21b22--b22r21--21-------|
B|------------------------------------------|
G|------------------------------------------|
D|------------------------------------------|
A|------------------------------------------|
E|------------------------------------------|

E|-b22r21--b22r21--b22r21--19h21p19~--------|
B|------------------------------------------|
G|------------------------------------------|
D|------------------------------------------|
A|------------------------------------------|
E|------------------------------------------|

(Parte 11)

E|------------------------------------------|
B|-x-x-17-17-17h19~---17b19r17p15----15-17~-|
G|--------------------------------16--------|
D|------------------------------------------|
A|------------------------------------------|
E|------------------------------------------|

E|------------------------------------------|
B|-/15--17--17b19r17------------------------|
G|-------------------16~---/14-16-----------|
D|--------------------------------14~-------|
A|-------------------------------------17-14|
E|------------------------------------------|

(Parte 12)

E|------------------------------------------|
B|--------15-------17b19--17--15--17--------|
G|-/16~------16-----------------------16----|
D|------------------------------------------|
A|------------------------------------------|
E|------------------------------------------|

E|------------------------------------------|
B|------------------------------------------|
G|-----16b19r16p14----14~-------------------|
D|---x-------------16-----------------------|
A|-x----------------------------------------|
E|------------------------------------------|
Acordes para:
    Composição: David Gilmour / Roger Waters Colaboração e revisão:
    • Vinícius Dias
    • Vitória Ortega

    0 comentários

    mostrar mais comentários
    00:00 / 00:00
    outros vídeos desta música
    repetir qualidade Automático
    Outros vídeos desta música
    00:00 / 00:00
    Automático
    Capítulos
    • Tocando o Primeiro Solo
    • Dicas Iniciais / Equipamentos
    • Configurações do Amplificador
    • Ensinando o Primeiro Solo
    • Tocando o Segundo Solo
    • Ensinando o Segundo Solo
    • Encerramento
    • Ficha Técnica / Erros de Gravação
    OK