Cifra Club

Mother

Pink Floyd

Cifra: Principal (violão e guitarra)
Tom: G
 G                                    C     C   G
Mother do you think they'll drop the bomb?
 G                                    C   C   G
Mother do you think they'll like the song?
 C                                           G   G
Mother do you think they'll try to break my balls?
D    C                            G   G
Oooh-ah, mother should I build a wall?

 G                            C   C    G
Mother should I run for president?
 G                               C   C   G
Mother should I trust the government?
 C                                     G   G
Mother will they put me in the firing line?
D    C                          G   G
Oooh-ah, is it just a waste of time?

 G                              C
Hush now baby, baby don't you cry
 F                             C
Mama's gonna make all of your nightmares come true
 F                           C
Mama's gonna put all of her fears into you
 F                               C
Mama's gonna keep you right here under her wing
  F                            C
She won't let you fly but she might let you sing
 F                      C       G
Mama's gonna keep baby cosy and warm

D     C
Oooh babe,
D     C
Oooh babe,
D          C                                     G
  Ooh babe, of course mama's gonna help build a wall

[Solo]
         G                      C                      G               C
E|----------------------------------------------------------------------------------|
B|------13b(15)---13b(15)r13-12h13--------------------------------------------------|
G|---12--------------------------------------------5p4--5p4-------------------------|
D|--------------------------------14p13-14~-----------------------------------------|
A|---------------------------------------------5\7---------5~--3p2-3---3\5-3~-------|
E|----------------------------------------------------------------------------------|

                G                        C                 G                C
E|----------------------------------------------------------------------------------|
B|--------10p8-10b(12)--10b(12)-10b(12)-(12)r10p8-8/13------------------------------|
G|---2/7----------------------------------------------------------------------------|
D|----------------------------------------------------14p13-14~---------------------|
A|----------------------------------------------------------------------------------|
E|----------------------------------------------------------------------------------|

                G
E|-----12b(14)-(14)r12p10~--10b(12)-(12)r10p8~--8/7-8p7-----------------------------|
B|---10--------------------8---------------------------8----------------------------|
G|--------------------------------------------------------7/5/4---------------------|
D|---------------------------------------------------------------5------------------|
A|----------------------------------------------------------------------------------|
E|----------------------------------------------------------------------------------|

 G                               C   C         G   G
Mother do you think she's good enough     for me?
 G                              C   C        G   G
Mother do you think she's dangerous      to me?
 C                                     G   G
Mother will she tear your little boy apart?
D    C                             G   G
Oooh-ah, mother will she break my heart?

 G                              C
Hush now baby, baby don't you cry
 F                               C
Mama's gonna check out all your girlfriends for you
 F                     C
Mama won't let anyone dirty get through
 F                      C
Mama's gonna wait up untill you get in
 F                    C
Mama will always find out where you've been
 F                     C           G
Mama's gonna keep baby healthy and clean

D     C
Oooh babe,
D     C
Oooh babe,
D          C                          G   G
  Ooh babe, you'll always be baby to me

 G                           C
Mother did it need to be so high?
exibições 427.910
Acordes para:
    Composição: Roger Waters Colaboração e revisão:

    0 comentários

    mostrar mais comentários

    Conseguiu tocar?

    119 tocaram 1 ainda não

    Grave um vídeo tocando Mother e mande pra gente!

    00:00 / 00:00
    outros vídeos desta música
    repetir qualidade Automático
    Outros vídeos desta música
    00:00 / 00:00
    Automático
    Capítulos
    • Tocando Solo
    • Apresentação / Equipamentos
    • Configuração pedal
    • Solo - Parte 1
    • Solo - Parte 2
    • Solo - Parte 3
    • Solo - Parte 4
    • Solo - Parte 5
    • Encerramento
    OK