Cifra Club

Us And Them

Pink Floyd

Cifra: Versão 3 (violão e guitarra)
tom: C
Intro:

e|--------5------------------5--------|--------7--------------7--------|
B|----5-----5---7-5-------5----5--7-5/|----7-----7---7----7-----7---7--|
G|--7---7----------7----7---7---------|--9---9--------9--9--9--------9/|
D|-0-------------------0--------------|-0--------------0---------------|
A|------------------------------------|--------------------------------|
E|------------------------------------|--------------------------------|

e|---------9----------------9----12---|-------7---------------7--------|
B|----10-----9---10-----10---10---10--|----8----8---8-----8-----8---8--|
G|--10--10--------10---10-----10---10-|---7-7--------7---7-7------7----|
D|-0----------------0-----------------|--0------------0----------------|
A|------------------------------------|--------------------------------|
E|------------------------------------|--------------------------------|

e|--------5------------------5--------|
B|----5-----5---7-5-------5----5--7-5/|
G|--7---7----------7----7---7---------|
D|-0-------------------0--------------|
A|------------------------------------|
E|------------------------------------|

------------------------------------------------------------------------------------------------
(os versos da musica é a introdução,então recomeçe novamente)
versos:

   Us...                          and  them...
e|--------5------------------5--------|--------7--------------7--------|
B|----5-----5---7-5-------5----5--7-5/|----7-----7---7----7-----7---7--|
G|--7---7----------7----7---7---------|--9---9--------9--9--9--------9/|
D|-0-------------------0--------------|-0--------------0---------------|
A|------------------------------------|--------------------------------|
E|------------------------------------|--------------------------------|

   And after all we're only ordinary men.
e|---------9----------------9----12---|-------7---------------7--------|
B|----10-----9---10-----10---10---10--|----8----8---8-----8-----8---8--|
G|--10--10--------10---10-----10---10-|---7-7--------7---7-7------7----|
D|-0----------------0-----------------|--0------------0----------------|
A|------------------------------------|--------------------------------|
E|------------------------------------|--------------------------------|

e|--------5------------------5--------|
B|----5-----5---7-5-------5----5--7-5/|
G|--7---7----------7----7---7---------|
D|-0-------------------0--------------|
A|------------------------------------|
E|------------------------------------|

  Me...                          and  you...
e|--------5------------------5--------|--------7--------------7--------|
B|----5-----5---7-5-------5----5--7-5/|----7-----7---7----7-----7---7--|
G|--7---7----------7----7---7---------|--9---9--------9--9--9--------9/|
D|-0-------------------0--------------|-0--------------0---------------|
A|------------------------------------|--------------------------------|
E|------------------------------------|--------------------------------|

   God only knows it's not what we would choose to do.
e|---------9----------------9----12---|-------7---------------7--------|
B|----10-----9---10-----10---10---10--|----8----8---8-----8-----8---8--|
G|--10--10--------10---10-----10---10-|---7-7--------7---7-7------7----|
D|-0----------------0-----------------|--0------------0----------------|
A|------------------------------------|--------------------------------|
E|------------------------------------|--------------------------------|
   To do...
e|--------5------------------5--------|
B|----5-----5---7-5-------5----5--7-5/|
G|--7---7----------7----7---7---------|
D|-0-------------------0--------------|
A|------------------------------------|
E|------------------------------------|
________________________________________________________________________________________

refrão:
   Bm                            Bm Bm/A  G                    C7+
e|-2------------------------------2--2----3---------------------0-------|
B|-3------------------------------3--2----3---------------------0-------|
G|-4------------------------------4--2----0---------------------0-------|
D|-4------------------------------4--2----0---------------------2-------|
A|-2------------------------------2--2----2---------------------3-------|
E|-2------------------------------2--2----3---------------------0-------|
  Forward he cried from the rear and the front rank died this inside

 Bm                            Bm Bm/A  G                    C7+
e|-2------------------------------2--2----3---------------------0-------|
B|-3------------------------------3--2----3---------------------0-------|
G|-4------------------------------4--2----0---------------------0-------|
D|-4------------------------------4--2----0---------------------2-------|
A|-2------------------------------2--2----2---------------------3-------|
E|-2------------------------------2--2----3---------------------0-------|
   The general sat and the lines on the map moved from side to side.

refrão cifrado:

Bm
Forward he cried from the rear

                Bm Bm/A   G   C7+  
and the front rank died this inside

    Bm                                Bm Bm/A
The general sat and the lines on the map

G                C
moved from side to side.
__________________________________________________________________________________________________
(O resto da música é igual tudo acima,na terceira parte são as mesmas notas mas não tem versos)

Versos 2:
  Black...                         and blue
e|--------5------------------5--------|--------7--------------7--------|
B|----5-----5---7-5-------5----5--7-5/|----7-----7---7----7-----7---7--|
G|--7---7----------7----7---7---------|--9---9--------9--9--9--------9/|
D|-0-------------------0--------------|-0--------------0---------------|
A|------------------------------------|--------------------------------|
E|------------------------------------|--------------------------------|
                                             
   And who knows which is which and who is who.
e|---------9----------------9----12---|-------7---------------7--------|
B|----10-----9---10-----10---10---10--|----8----8---8-----8-----8---8--|
G|--10--10--------10---10-----10---10-|---7-7--------7---7-7------7----|
D|-0----------------0-----------------|--0------------0----------------|
A|------------------------------------|--------------------------------|
E|------------------------------------|--------------------------------|

e|--------5------------------5--------|
B|----5-----5---7-5-------5----5--7-5/|
G|--7---7----------7----7---7---------|
D|-0-------------------0--------------|
A|------------------------------------|
E|------------------------------------|
      
   Up...                           and down
e|--------5------------------5--------|--------7--------------7--------|
B|----5-----5---7-5-------5----5--7-5/|----7-----7---7----7-----7---7--|
G|--7---7----------7----7---7---------|--9---9--------9--9--9--------9/|
D|-0-------------------0--------------|-0--------------0---------------|
A|------------------------------------|--------------------------------|
E|------------------------------------|--------------------------------|

    And in the end it's only round and round 
e|---------9----------------9----12---|-------7---------------7--------|
B|----10-----9---10-----10---10---10--|----8----8---8-----8-----8---8--|
G|--10--10--------10---10-----10---10-|---7-7--------7---7-7------7----|
D|-0----------------0-----------------|--0------------0----------------|
A|------------------------------------|--------------------------------|
E|------------------------------------|--------------------------------|
     and round...
e|--------5------------------5--------|
B|----5-----5---7-5-------5----5--7-5/|
G|--7---7----------7----7---7---------|
D|-0-------------------0--------------|
A|------------------------------------|
E|------------------------------------|
_____________________________________________________________________________________________
Refrão 2:
 Bm                              Bm Bm/A  G                    C7+
e|-2------------------------------2--2----3---------------------0-------|
B|-3------------------------------3--2----3---------------------0-------|
G|-4------------------------------4--2----0---------------------0-------|
D|-4------------------------------4--2----0---------------------2-------|
A|-2------------------------------2--2----2---------------------3-------|
E|-2------------------------------2--2----3---------------------0-------|
  Haven't you heard? It's a battle of words the poster bearer cried

 Bm                              Bm Bm/A  G                    C7+
e|-2------------------------------2--2----3---------------------0-------|
B|-3------------------------------3--2----3---------------------0-------|
G|-4------------------------------4--2----0---------------------0-------|
D|-4------------------------------4--2----0---------------------2-------|
A|-2------------------------------2--2----2---------------------3-------|
E|-2------------------------------2--2----3---------------------0-------|
"Listen son", said the man with the gun There's room for you inside

refrão 2 cifrada:

Bm                                      Bm
"Haven't you heard? It's a battle of words"

Bm/A  G             C7+
the poster bearer cried.

 Bm                                   Bm
"Listen son", said the man with the gun

 Bm/A    G             C7+
"There's room for you inside."
_________________________________________________________________________________________________
Parte 3:
(éssa é a parte do solo do saxofone,por isso toque a mesma coisa ,o dedilhado depois o refrão se cantar)
e|--------5------------------5--------|--------7--------------7--------|
B|----5-----5---7-5-------5----5--7-5/|----7-----7---7----7-----7---7--|
G|--7---7----------7----7---7---------|--9---9--------9--9--9--------9/|
D|-0-------------------0--------------|-0--------------0---------------|
A|------------------------------------|--------------------------------|
E|------------------------------------|--------------------------------|

e|---------9----------------9----12---|-------7---------------7--------|
B|----10-----9---10-----10---10---10--|----8----8---8-----8-----8---8--|
G|--10--10--------10---10-----10---10-|---7-7--------7---7-7------7----|
D|-0----------------0-----------------|--0------------0----------------|
A|------------------------------------|--------------------------------|
E|------------------------------------|--------------------------------|

e|--------5------------------5--------|
B|----5-----5---7-5-------5----5--7-5/|
G|--7---7----------7----7---7---------|
D|-0-------------------0--------------|
A|------------------------------------|
E|------------------------------------|

som do refrão:2X
Bm                              Bm Bm/A  G                    C7+
e|-2------------------------------2--2----3---------------------0-------|
B|-3------------------------------3--2----3---------------------0-------|
G|-4------------------------------4--2----0---------------------0-------|
D|-4------------------------------4--2----0---------------------2-------|
A|-2------------------------------2--2----2---------------------3-------|
E|-2------------------------------2--2----3---------------------0-------|

agora retorna ao normal...
________________________________________________________________________________________________
Versos 4: 
    
   Down...                         and out
e|--------5------------------5--------|--------7--------------7--------|
B|----5-----5---7-5-------5----5--7-5/|----7-----7---7----7-----7---7--|
G|--7---7----------7----7---7---------|--9---9--------9--9--9--------9/|
D|-0-------------------0--------------|-0--------------0---------------|
A|------------------------------------|--------------------------------|
E|------------------------------------|--------------------------------|
    
   It can't be helped but there's a lot of it about.
e|---------9----------------9----12---|-------7---------------7--------|
B|----10-----9---10-----10---10---10--|----8----8---8-----8-----8---8--|
G|--10--10--------10---10-----10---10-|---7-7--------7---7-7------7----|
D|-0----------------0-----------------|--0------------0----------------|
A|------------------------------------|--------------------------------|
E|------------------------------------|--------------------------------|

  With...                             without.
e|--------5------------------5--------|--------7--------------7--------|
B|----5-----5---7-5-------5----5--7-5/|----7-----7---7----7-----7---7--|
G|--7---7----------7----7---7---------|--9---9--------9--9--9--------9/|
D|-0-------------------0--------------|-0--------------0---------------|
A|------------------------------------|--------------------------------|
E|------------------------------------|--------------------------------|
 
   And who'll deny it's what the fighting's all about?
e|---------9----------------9----12---|-------7---------------7--------|
B|----10-----9---10-----10---10---10--|----8----8---8-----8-----8---8--|
G|--10--10--------10---10-----10---10-|---7-7--------7---7-7------7----|
D|-0----------------0-----------------|--0------------0----------------|
A|------------------------------------|--------------------------------|
E|------------------------------------|--------------------------------|
  About?...
e|--------5------------------5--------|
B|----5-----5---7-5-------5----5--7-5/|
G|--7---7----------7----7---7---------|
D|-0-------------------0--------------|
A|------------------------------------|
E|------------------------------------|

Refrão 4:
  Bm                             Bm Bm/A  G                 C7+
e|-2------------------------------2--2----3------------------0-------|
B|-3------------------------------3--2----3------------------0-------|
G|-4------------------------------4--2----0------------------0-------|
D|-4------------------------------4--2----0------------------2-------|
A|-2------------------------------2--2----2------------------3-------|
E|-2------------------------------2--2----3------------------0-------|
   Out of the way, it's a busy day I've got things on my mind.
   Bm                                  Bm Bm/A  G                  C
e|-2------------------------------------2--2----3------------------0-------|
B|-3------------------------------------3--2----3------------------1-------|
G|-4------------------------------------4--2----0------------------0-------|
D|-4------------------------------------4--2----0------------------2-------|
A|-2------------------------------------2--2----2------------------3-------|
E|-2------------------------------------2--2----3------------------0-------|
For the want of the price of tea and a slice The old man died.

Refrão 4 cifrado:

Bm                           Bm
Out of the way, it's a busy day

Bm/A  G              C7+
I've got things on my mind.

        Bm                                Bm Bm/A
For the want of the price of tea and a slice

G            C
The old man died.
____________________________________________________________________________________

Fim...
00:00 / 00:00
Outros vídeos desta música
Repetir
Outros vídeos desta música
Composição de Richard Wright / Roger Waters
Colaboração e revisão:
  • Bruno Garcia
5.033 exibições
    • ½ Tom
    • A
    • Bb
    • B
    • C
    • Db
    • D
    • Eb
    • E
    • F
    • F#
    • G
    • Ab
  • Adicionar à lista

    0 comentários

    Ver todos os comentários

    Entre para oCifra Club PRO

    Tenha acesso a benefícios exclusivos no App e no Site

    • Chega de anúncios

    • Prioridade de compra em lançamentos

    • Mais recursos no app do Afinador

    • Atendimento Prioritário

    • Descontos nos produtos Cifra Club

    • Ajude a produzir mais conteúdo

    00:00 / 00:00

    Cifra Club Pro

    Aproveite o Cifra Club com benefícios exclusivos e sem anúncios
    Cifra Club Pro
    Aproveite o Cifra Club com benefícios exclusivos e sem anúncios
    OK