Cifra Club

What's Up

P!nk

Cifra: Principal (violão e guitarra)
tom: C
a base da música inteira é  G Am C G

guitarra solo intro:
e|-----------------------------------------------|
B|------------------------------------3----------|
G|-7/9-9-9-9-------------2-----2--2--2-2-4/6-6---|
D|-----------7--7/4-4-2-4-4-2-4-4--------------7-|
A|-----------------------------------------------|
E|-----------------------------------------------|

guita solo verso:
e|----------------------------------------------------|
B|-----------------------------3----------------------|
G|--------------2-----2--2~~--2-2-4/6-6-----------2~~-|
D|--7--7/4-4-2-4-4-2-4-4----------------7---2-4-2-4---|
A|----------------------------------------------------|
E|----------------------------------------------------|

é basicamente isso a música inteira xD

Have fun! Rock on! |m|
Compositor não encontrado.
Colaboração e revisão:
  • Thais Pereira
10.585 exibições
    • ½ Tom
    • A
    • Bb
    • B
    • C
    • Db
    • D
    • Eb
    • E
    • F
    • F#
    • G
    • Ab
  • Adicionar à lista

    0 comentários

    Ver todos os comentários

    Conseguiu tocar?

    0 Tocaram 0 Ainda não

    Grave um vídeo tocando What's Up e nos envie!

    00:00 / 00:00
    Outros vídeos desta música
    Repetir Qualidade Automático
    Outros vídeos desta música
    00:00 / 00:00
    Automático

    Cifra Club Pro

    Aproveite o Cifra Club com benefícios exclusivos e sem anúncios
    Cifra Club Pro
    Aproveite o Cifra Club com benefícios exclusivos e sem anúncios
    OK