Notificações Amigos pendentes

      Pitty

      Memórias

      370.427 exibições
      Tom: F
      (intro) apenas o baixo
      
      Eu fui matando os meus heróis aos poucos
      Como se já não tivesse
      Nem uma lição pra aprender
      
      (guitarra)
      (este solo tá na música toda  entrando sempre antes do C )
      
      
      E|----6------10-----6--------8----
      B|-------8-------8-----8-------8--
      G|----------7--------------7------
      
      
      Eu sou uma contradição
             C
      E foge da minha mão
                    F
      Fazer com que tudo que eu digo
       D
      Faça algum sentido
      
      
      E|----6------10-----6--------8----
      B|-------8-------8-----8-------8--
      G|----------7--------------7------
      
      
      Eu quis me perder por aí
               C                     F
      Fingindo muito bem que eu nunca precisei
                       D
      De um lu..gar só meu
      
      G
      Memórias
      Não são só memórias
        Bb                        A
      São fantasmas que me sopram aos ouvidos
                 D
      Coisas que eu...
      
      (passagem) G
      
      
      E|----6------10-----6--------8----
      B|-------8-------8-----8-------8--
      G|----------7--------------7------
      
      
      Eu dou sempre o melhor de mim
                C
      E sei que só assim é que talvez
         F            D
      Se mova alguma coisa ao meu redor
      
      
      E|----6------10-----6--------8----
      B|-------8-------8-----8-------8--
      G|----------7--------------7------
      
      
      Eu vou despedaçar você
               C
      Todas as vezes que eu lembrar
               F          D
      Por onde você já andou sem mim
      
      G
      Memórias
      Não são só memórias
       Bb                         A
      São fantasmas que me sopram aos ouvidos
               D
      Coisas que eu...
      G
      Memórias
      Não são só memórias
       Bb                         A
      São fantasmas que me sopram aos ouvidos
              D                 G
      Coisas que eu nem quero saber!
      
      (base solo) G G (Bb A) G  (Bb A)
                  G G Bb A
      
      
      E|--------------------------------------------------------------
      B|--------------------------------------------------------------
      G|--12~~--7~~-7-5-7/12~~--7~~----2/3~~----3/7~~-----77777777----
      D|--------------------------------------------------------------
      A|--------------------------------------------------------------
      D|--------------------------------------------------------------
      
      
      E|--------------------------------------------------6-----------
      B|--------------------------------------------6-----------------
      G|--12~~--7~~--7-5--77/12/14-12-14/15~~~~--3-----3--------------
      D|--------------------------------------------------------------
      A|--------------------------------------------------------------
      D|--------------------------------------------------------------
      
      
      E|--------------------------------------------------------------
      B|--------------------------------------------------------------
      G|-3/5/7~~~~----7/11~~~~----------------------------------------
      D|--------------------------------------------------------------
      A|--------------------------------------------------------------
      D|--------------------------------------------------------------
      
      
      (baixo)
      
      Eu sou uma contradição
      E foge da minha mão
      Fazer com que tudo que eu digo
      Faça algum sentido
      
      
      E|----6------10-----6--------8----
      B|-------8-------8-----8-------8--
      G|----------7--------------7------
      
      
      Eu quis me perder por aí
               C                           F
      Fingindo muito bem que eu nunca precisei
              D
      De um lugar só meu
      
      G
      Memórias
      Não são só memórias
       Bb                         A
      São fantasmas que me sopram aos ouvidos
               D
      Coisas que eu...
      G
      Memórias
      Não são só memórias
       Bb                         A
      São fantasmas que me sopram aos ouvidos
               D            G
      Coisas que eu nem quero saber!
      
      
       (base do solo) G
      E|--------------------------------------------------------------
      B|--13/15-15-15-15-15...--15^--15^--15^--15^--15--13------------
      G|----------------------------------------------------12~~~~~---
      D|--------------------------------------------------------------
      
      
      E|--------------------------------------------------------------
      B|--13/15--15--15--16-15~~~--15--13--15--15/20~~~~~~------------
      G|--------------------------------------------------------------
      
        Composição: PittyColaboração e revisão:
        • luuhknot
        • Ceará
        • Ruan LP
        • ELIAS
        • Gabi.ROQUE_Pitty
        • +1

        Comentários 17

        140 .
        • lipe lipe: Em 23/09/2016 - 22:19

          galera a música é em :
          drop: D
          afinação: D A D G B E

        • axl_cryss axl_cryss: Em 07/11/2015 13:27

          Só observo esses caras tocando ela em ré e achando que a cifra ta errada '-' assaashuuhas

        • Leety Leety: Em 28/12/2013 16:12

          Baixem o arquivo que roda no guitar pro que tá bem legal

        • Kássia Kássia: Em 09/08/2013 22:31

          ritmo?? :c

        • Black Bird Black Bird: Em 15/04/2012 13:52

          treina mais teu ouvido ae manolo..
          o solo ta ok, mas o resto...

        • xxdanielmetalxx xxdanielmetalxx: Em 03/03/2012 21:13

          aff..cada merda que eu so obrigado a ler o galera a musica ta correta e os tonto que nao sabe toca e fica falando babaquisse...i love pitty

          • austin150 austin150: Em 17/12/2013 20:18

            Cara tá tudo errado nessa "coisa" porque não dá pra chamar de cifra.

        • jixx jixx: Em 10/02/2012 16:49

          galera ai ta presizando aprende um poko sobre musica neh -.- ta toda certa essa musica eu tirei todinha n tem nada errado -.-

        • guh_xd guh_xd: Em 10/01/2012 15:37

          video aula !!! ta uma merda isso ai

        • digotankian digotankian: Em 26/12/2011 01:01

          QUEM FEZ ESSA CIFRA É UM BABACA

          • slipknot62 slipknot62: Em 10/02/2012 00:28

            como você é burro e ignorante , é só fazer em acorde de guitarra (power chord) vai saber mais sobre teoria musical BABACA

          • austin150 austin150: Em 17/12/2013 20:19

            Power chord não adiamta quando o tom está errado.

        140 cancelar
        0:00 / 0:00

        Capítulos

          1 versão de baixo exibições contribuição e correção
          2 versões de Guitar Proformatodownloadscontribuição
          play/pausefechar subir/descer velocidade
          6ª corda E5ª corda A4ª corda D3ª corda G2ª corda B1ª corda E
            acordes
            publicidade
            fechar
            ok