Cifra Club

Memórias

Pitty

Cifra: Principal
exibições 387.042
Tom: F
Eu fui matando os meus heróis aos poucos
Como se já não tivesse
Nem uma lição pra aprender

E|----6------10-----6--------8------------|
B|-------8-------8-----8-------8----------|
G|----------7--------------7--------------|
D|----------------------------------------|
A|----------------------------------------|
E|----------------------------------------|

Eu sou uma contradição
        C
E foge da minha mão
               F
Fazer com que tudo que eu digo
 D
Faça algum sentido

E|----6------10-----6--------8------------|
B|-------8-------8-----8-------8----------|
G|----------7--------------7--------------|
D|----------------------------------------|
A|----------------------------------------|
E|----------------------------------------|

Eu quis me perder por aí
          C                       F
Fingindo muito bem que eu nunca precisei
                D
De um lugar só meu

 G
Memórias
Não são só memórias
 Bb                      A
São fantasmas que me sopram aos ouvidos
           D
Coisas que eu

G

E|----6------10-----6--------8------------|
B|-------8-------8-----8-------8----------|
G|----------7--------------7--------------|
D|----------------------------------------|
A|----------------------------------------|
E|----------------------------------------|

Eu dou sempre o melhor de mim
           C
E sei que só assim é que talvez
    F           D
Se mova alguma coisa ao meu redor

E|----6------10-----6--------8------------|
B|-------8-------8-----8-------8----------|
G|----------7--------------7--------------|
D|----------------------------------------|
A|----------------------------------------|
E|----------------------------------------|

Eu vou despedaçar você
          C
Todas as vezes que eu lembrar
          F         D
Por onde você já andou sem mim

 G
Memórias
Não são só memórias
 Bb                         A
São fantasmas que me sopram aos ouvidos
         D
Coisas que eu
 G
Memórias
Não são só memórias
 Bb                         A
São fantasmas que me sopram aos ouvidos
         D                 G
Coisas que eu nem quero saber!

[Solo]  G  G  Bb  A  G  Bb  A
        G  G  Bb  A

E|--------------------------------------------------------------|
B|--------------------------------------------------------------|
G|--12~~--7~~-7-5-7/12~~--7~~----2/3~~----3/7~~-----77777777----|
D|--------------------------------------------------------------|
A|--------------------------------------------------------------|
D|--------------------------------------------------------------|

E|--------------------------------------------------6-----------|
B|--------------------------------------------6-----------------|
G|--12~~--7~~--7-5--77/12/14-12-14/15~~~~--3-----3--------------|
D|--------------------------------------------------------------|
A|--------------------------------------------------------------|
D|--------------------------------------------------------------|

E|--------------------------------------------------------------|
B|--------------------------------------------------------------|
G|-3/5/7~~~~----7/11~~~~----------------------------------------|
D|--------------------------------------------------------------|
A|--------------------------------------------------------------|
D|--------------------------------------------------------------|

Eu sou uma contradição
E foge da minha mão
Fazer com que tudo que eu digo
Faça algum sentido

E|----6------10-----6--------8------------|
B|-------8-------8-----8-------8----------|
G|----------7--------------7--------------|
D|----------------------------------------|
A|----------------------------------------|
E|----------------------------------------|

Eu quis me perder por aí
          C                           F
Fingindo muito bem que eu nunca precisei
       D
De um lugar só meu

 G
Memórias
Não são só memórias
 Bb                         A
São fantasmas que me sopram aos ouvidos
         D
Coisas que eu
 G
Memórias
Não são só memórias
 Bb                         A
São fantasmas que me sopram aos ouvidos
         D            G
Coisas que eu nem quero saber!

[Solo]

E|--------------------------------------------------------------|
B|--13/15-15-15-15-15...--15^--15^--15^--15^--15--13------------|
G|----------------------------------------------------12~~~~~---|
D|--------------------------------------------------------------|
A|--------------------------------------------------------------|
E|--------------------------------------------------------------|

E|--------------------------------------------------------------|
B|--13/15--15--15--16-15~~~--15--13--15--15/20~~~~~~------------|
G|--------------------------------------------------------------|
D|--------------------------------------------------------------|
A|--------------------------------------------------------------|
E|--------------------------------------------------------------|
Acordes para:
    Composição: PittyColaboração e revisão:

    0 comentários

      mostrar mais comentários

      Conseguiu tocar?

      23tocaram0ainda não

      Grave um vídeo tocando Memórias e mande pra gente!

      00:00 / 00:00
      outros vídeos desta música
      repetirqualidadeautomática
      Outro vídeos desta música
        00:00 / 00:00
        automática
        OK