Cifra Club

Na Sua Estante

Pitty

Tab de baixo: Principal
exibições 75.399
[Introdução]

G|----------------------------------------------|
D|----------------------------------------------|
A|----------------------------------------------|
D|-0-0-0-0--0-0-0-0--0-0-0-0--0-0-0-0-----------|

G|----------------------------------------------|
D|----------------------------------------------|
A|-2-2-2-2--2-2-2-2--2-2-2-2--2-2-2-2-----------|
D|----------------------------------------------|

[Primeira Parte]

Te vejo errando e isso não é pecado...

Parte 1 de 2 - 4x:
G|----------------------------------------------|
D|----------------------------------------------|
A|----------------------------------------------|
D|-0-0-0-0--0-0-0-0--0-0-0-0--0-0-0-0-----------|

G|----------------------------------------------|
D|----------------------------------------------|
A|-2-2-2-2--2-2-2-2--2-2-2-2--2-2-2-2-----------|
D|----------------------------------------------|

Parte 2 de 2 - 2x:
G|----------------------------------------------|
D|----------------------------------------------|
A|----------------------------------------------|
D|-7-7-7-7--7-7-7-7--7-7-7-7--7-7-7-7-----------|

[Refrão 2x]

E não adianta nem me procurar...

Parte 1 de 2
G|----------------------------------------------|
D|----------------------------------------------|
A|----------------------------------------------|
D|-5-5-5-5--5-5-5-5--7-7-7-7--7-7-7-7-----------|

G|----------------------------------------------|
D|----------------------------------------------|
A|-5-5-5-5--7-7-7-7--2-2-2-2--2-2-2-2-----------|
D|----------------------------------------------|

Parte 2 de 2
G|----------------------------------------------|
D|----------------------------------------------|
A|----------------------------------------------|
D|-5-5-5-5--5-5-5-5--7-7-7-7--7-7-7-7-----------|

G|----------------------------------------------|
D|----------------------------------------------|
A|-2-2-2-2--2-2-2-2--2-2-2-2--2-2-2-2-----------|
D|----------------------------------------------|

[Introdução 2]

G|----------------------------------------------|
D|----------------------------------------------|
A|----------------------------------------------|
D|-5-5-5-5--5-5-5-5--7-7-7-7--7-7-7-7-----------|

G|----------------------------------------------|
D|----------------------------------------------|
A|----------------------------------------------|
D|-8-8-8-8--8-8-8-8--7--------------------------|

[Segunda Parte]

Você tá sempre indo e vindo, tudo bem...

Parte 1 de 2 - 3x:
G|----------------------------------------------|
D|----------------------------------------------|
A|----------------------------------------------|
D|-0-0-0-0--0-0-0-0--0-0-0-0--0-0-0-0-----------|

G|----------------------------------------------|
D|----------------------------------------------|
A|-2-2-2-2--2-2-2-2--2-2-2-2--2-2-2-2-----------|
D|----------------------------------------------|

Parte 2 de 2 - 2x:
G|----------------------------------------------|
D|----------------------------------------------|
A|-0-0-0-0--0-0-0-0--0-0-0-0--0-0-0-0-----------|
D|----------------------------------------------|

[Refrão 2 - 2x]

E não adianta nem me procurar...

Parte 1 de 2
G|----------------------------------------------|
D|----------------------------------------------|
A|----------------------------------------------|
D|-5-5-5-5--5-5-5-5--7-7-7-7--7-7-7-7-----------|

G|----------------------------------------------|
D|----------------------------------------------|
A|-5-5-5-5--7-7-7-7--2-2-2-2--2-2-2-2-----------|
D|----------------------------------------------|

Parte 2 de 2
G|----------------------------------------------|
D|----------------------------------------------|
A|----------------------------------------------|
D|-5-5-5-5--5-5-5-5--7-7-7-7--7-7-7-7-----------|

G|----------------------------------------------|
D|----------------------------------------------|
A|-2-2-2-2--2-2-2-2--2-2-2-2--2-2-2-2-----------|
D|----------------------------------------------|

[Terceira Parte]

Só por hoje não quero mais te ver...

Parte 1 de 3 - 2x:
G|----------------------------------------------|
D|----------------------------------------------|
A|----------------------------------------------|
D|-5-5-5-5--5-5-5-5--7-7-7-7--7-7-7-7-----------|

G|----------------------------------------------|
D|----------------------------------------------|
A|-2-2-2-2--2-2-2-2--2-2-2-2--2-2-2-2-----------|
D|----------------------------------------------|

Parte 2 de 3
G|----------------------------------------------|
D|----------------------------------------------|
A|----------------------------------------------|
E|-5-5-5-5--5-5-5-5--7-7-7-7--7-7-7-7-----------|

G|----------------------------------------------|
D|----------------------------------------------|
A|-2-2-2-2--4-4-4-4--5-5-5-5--7-7-7-7-----------|
E|----------------------------------------------|

Parte 3 de 3
G|----------------------------------------------|
D|----------------------------------------------|
A|----------------------------------------------|
E|--5-5-5-5--5-5-5-5--7-7-7-7--7-7-7-7----------|

G|----------------------------------------------|
D|----------------------------------------------|
A|-2-2-2-2--2-2-2-2--2-2-2-2--2-2-2-2-----------|
E|----------------------------------------------|
Composição: PittyColaboração e revisão:

0 comentários

    mostrar mais comentários
    00:00 / 00:00
    outros vídeos desta música
    repetirqualidadeautomática
    Outro vídeos desta música
      00:00 / 00:00
      automática
      Capítulos
      • Tocando a música
      • Apresentação / Equipamentos
      • Treinando Introdução
      • Treinando Primeira Parte - Parte 1 de 2
      • Treinando Primeira Parte - Parte 2 de 2
      • Dicas Refrão até Segunda Introdução
      • Treinando Refrão - Parte 1 de 2
      • Treinando Refrão - Parte 2 de 2
      • Treinando Segunda Introdução
      • Dicas Segunda Parte - Final
      • Treinando Terceira Parte - Parte 1 de 3
      • Treinando Terceira Parte - Parte 2 de 3
      • Treinando Terceira Parte - Parte 3 de 3
      • Encerramento
      OK