Cifra Club

Cecilia Ann

Pixies

Cifra: Principal
exibições 1.610
Tom: D
VERSE/MAIN THEME

E|--------------------------------------------------------------------
B|--------------------------------------------------------------------
G|--------------------------------------------------------------------
D|----------------------2-----------2---2----5----------4---2----4----
A|----------------2----------------------------------------------------
E|-----0---------------------------------------------------------------


E|--------------------------------------------------------------------
B|--------------------------------------------------------------------
G|--------------------------------------------------------------------
D|--------------------------------------------------------------------
A|--0-----------2--2-----0--------0---0---2----2---4--2--0------------
E|--------------------------------------------------------------4----2
Acordes para:
    Composição: The SurftonesColaboração e revisão:
    • Élison Duarte

    0 comentários

      mostrar mais comentários

      Conseguiu tocar?

      0tocaram1ainda não

      Grave um vídeo tocando Cecilia Ann e mande pra gente!

      00:00 / 00:00
      outros vídeos desta música
      repetirqualidadeautomática
      Outro vídeos desta música
        00:00 / 00:00
        automática
        OK