Enviar cifraEntrar

Debaser

Pixies

Tab de baixo: Principal
exibições 880
R- rest for a whole note
Intro:
|-------------------------------------------------| 
|-------------------------------------------------|
|-------------------------3--3--3--3--------------|
|-6--6--6--6--1--1--1--1--------------1--1--1--1--|

|-------------------------------------------------|
|-------------------------------------------------|
|-5--5--5--5--0--0--0--0--1--1--1--1--3--3--3--3--|
|-------------------------------------------------|

|-------------------------------------------------|
|-------------------------------------------------|
|-------------0--0--0--0--3--3--3--3--5--5--5--5--|
|-1--1--1--1--------------------------------------|

|-------------------------------------------------|
|-------------------------------------------------|
|-1--1--1--1--3--3--3--3--------------R--3--3-----|
|-------------------------3--3--3--3-----------3--|

|-------------------------------------------------|
|-------------------------------------------------|
|-------------0--0--0--0--3--3--3--3--5--5--5--5--|
|-1--1--1--1--------------------------------------|

|-------------------------------------------------|
|-------------------------------------------------|
|-1--1--1--1--3--3--3--3--------------R--3--3-----|
|-------------------------3--3--3--3-----------3--|

Verse: these notes are played really fast, listen to the record for timing
|-------------------------------------------------|
|-------------------------------------------------|
|----------1-1-1-1-1-1-1-----------1-1-1-1-1-1-1--|
|-1-1-1-1-----------------3-3-3-3-----------------| 

"...but i am un chien andalusia..."
|-------------------------------------------------|
|-------------------------------------------------|
|----------1-1-1-1-1-1-1-----------1-1-1-1-1-1-3--|
|-1-1-1-1-----------------3-3-3-3-----------------|

Pre-chorus:
|-------------------------------------------------|
|-------------------------------------------------|
|-1-1-1-1--etc------------------------------------|
|-------------------------------------------------|

Tacet - bass rests until the drums come back in heavily. If you listen 
carefully, you'll be able to pinpoint it...

Chorus:
|-------------------------------------------------|
|-------------------------------------------------|
|-5--5--5--5--0--0--0--0--1--1--1--1--3--3--3--3--|
|-------------------------------------------------|

|-------------------------------------------------|
|-------------------------------------------------|
|-------------0--0--0--0--3--3--3--3--5--5--5--5--|
|-1--1--1--1--------------------------------------|

|-------------------------------------------------|
|-------------------------------------------------|
|-1--1--1--1--3--3--3--3--------------R--3--3-----|
|-------------------------3--3--3--3-----------3--|

|-------------------------------------------------|
|-------------------------------------------------|
|-------------0--0--0--0--3--3--3--3--5--5--5--5--|
|-1--1--1--1--------------------------------------|

|-------------------------------------------------|
|-------------------------------------------------|
|-1--1--1--1--3--3--3--3--------------R--3--3-----|
|-------------------------3--3--3--3-----------3--|

Tacet - bass rests for first half of the next verse

Verse:
|-------------------------------------------------|
|-------------------------------------------------|
|----------1-1-1-1-1-1-1-----------1-1-1-1-1-1-3--|
|-1-1-1-1-----------------3-3-3-3-----------------| x4

Pre-chorus:
|-------------------------------------------------|
|-------------------------------------------------|
|-1-1-1-1--etc------------------------------------|
|-------------------------------------------------|

Tacet - bass rests until the drums come back in heavily. If you 
listen carefully, you'll be able to pinpoint it...

Chorus:
|-------------------------------------------------|
|-------------------------------------------------|
|-5--5--5--5--0--0--0--0--1--1--1--1--3--3--3--3--|
|-------------------------------------------------|

|-------------------------------------------------|
|-------------------------------------------------|
|-------------0--0--0--0--3--3--3--3--5--5--5--5--|
|-1--1--1--1--------------------------------------|

|-------------------------------------------------|
|-------------------------------------------------|
|-1--1--1--1--3--3--3--3--------------R--3--3-----|
|-------------------------3--3--3--3-----------3--|

|-------------------------------------------------|
|-------------------------------------------------|
|-------------0--0--0--0--3--3--3--3--5--5--5--5--|
|-1--1--1--1--------------------------------------|

|-------------------------------------------------|
|-------------------------------------------------|
|-1--1--1--1--3--3--3--3--------------R--3--3-----|
|-------------------------3--3--3--3-----------3--|

Outro:
|-------------------------------------------------|
|-------------------------------------------------|
|----------1-1-1-1-1-1-1-----------1-1-1-1-1-1-1--|
|-1-1-1-1-----------------3-3-3-3-----------------| x4

|-------------------------------------------------|
|-------------------------------------------------|
|----------1-1-1-1-1-1-1-----------1-1-1-1-1-1-3--|
|-1-1-1-1-----------------3-3-3-3-----------------| x8

Alternatively, you can play the first part of the outro 4 times, the 
second part 7 times and end w/ this:
|-------------------------------------------------|
|-------------------------------------------------|
|-5--5--5--5--0--0--0--0--1--1--1--3--3--3--------|
|-------------------------------------------3--1--|
  • 1
  • 2
  • 3
  • 4
  • 5
  • 6
  • 7
  • 8
  • 9
  • 10
  • 11
  • 12
    Composição: Black Francis

    0 comentários

      mostrar mais comentários

      Conseguiu tocar?

      0tocaram0ainda não

      Grave um vídeo tocando Debaser e mande pra gente!

      00:00 / 00:00
      outros vídeos desta música
      repetirqualidadeautomática
      • automática
      Outro vídeos desta música
        00:00 / 00:00
        automática
        • automática
        Acordes para:violão e guitarra
        dificuldadeexibiçõescontribuições
        3 versões de Tab de baixoexibiçõescontribuições
        2 versões de Guitar Proformatodownloadscontribuição
        fecharplay/pause subir/descer velocidade
        fechar
        OK