Cifra Club

Here comes your man

Pixies

Cifra: Principal
exibições 153.372
Tom: D
(entrad: (3x)


   E|------------------------------------------------||
   B|------------------------------------------------||
   G|------------------------------------------------||
   D|--0--0----4--4--5------------------------0-2--0-||
   A|-------------------0-------2--0--0--4-----------||
   E|----------------------3-------------------------||


(verso)

   E|-------------------------------------------------------------||
   B|----------7--------------------14-----------------8----------||
   G|-----7-------7---7------14---------14--------9-------9---9---||
   D|--7--(7)------7----14----14---------14/--9---9-------9-------||
   A|-------------------------------------------------------------||
   E|-------------------------------------------------------------||


   E|-----------------------||
   B|-------------12--------||
   G|------12--------12-----||
   D|--12----12--------12/-||
   A|-----------------------||
   E|-----------------------||


D                    A
  Outside there's a box car waiting
Em             G
  Outside the family stew
D             A
  Out by the fire breathing
Em           G
  Outside we wait til face turns blue

(verso 2)

D             A
  I know the nervous walking
Em            G
  I know the dirty beard hangs
D             A
  Out by the box car waiting
Em                G
  Take me away to nowhere plains

(outro)

          Bm                       G         A        D
   E|-----------------------------------------------------|
   B|--12-12-12-12-12-12-12-12--12-(8x)--10-(8x)--15-(9x)-|
   G|--11-11-11-11-11-11-11-11--12--------9-------14------|
   D|-----------------------------------------------------|
   A|-----------------------------------------------------|
   E|-----------------------------------------------------|


Bm                    G               A
  There is a wait so long (so long so long)
                      D
  You'll never wait so long

(refrão)

G  A                D
    Here comes your man [3 times]

(solo)

   E|--------------------------------------------------------------------------|
   B|--------------------------------------------------------------------------|
   G|--11--9--------------------------------------11--9----------12-12-11----9-|
   D|---------12--12--11--11--11---11--11h12-------------12--12-----------12---|
   A|--------------------------------------------------------------------------|
   E|--------------------------------------------------------------------------|


Verso 3: (Mesmos acordes dos outros versos)

Big shake on the box car moving
Big shake to the land that's falling down
Is a wind makes a palm stop blowing
A big, big stone fall and break my crown

(solo 2)

   E|--------------------------------------------------------------|
   B|--15-15-15-17-15-17-15----------------------------------------|
   G|--14-14-14-14-14-14-14--14-14-16-14-16-14--12-12-14-12-14-12--|
   D|------------------------14-14-14-14-14-14--12-12-12-12-12-12--|
   A|--------------------------------------------------------------|
   E|--------------------------------------------------------------|
                    (3x)

   E|------------------|--------------------------------------------|
   B|------------------|--------------------------------------------|
   G|--12--12-12-12-12-|--------------------------------------------|
   D|--14--14-14-14-14-|--12-12-12--12-12-12-1214-14-14--14-14-14--|
   A|------------------|--------------------------------------------|
   E|------------------|--------------------------------------------|


   E|---------------------------------------------|
   B|---------------------------------------------|
   G|---------------------------------------------|
   D|--14/12-12-12--12-12-12-12-14-14-14--14-14---|
   A|---------------------------------------------|
   E|---------------------------------------------|
Acordes para:
    Composição: Black FrancisColaboração e revisão:

    0 comentários

      mostrar mais comentários

      Conseguiu tocar?

      20tocaram0ainda não

      Grave um vídeo tocando Here comes your man e mande pra gente!

      00:00 / 00:00
      outros vídeos desta música
      repetirqualidadeautomática
      Outro vídeos desta música
        00:00 / 00:00
        automática
        OK