Enviar cifraEntrar

Indie Cindy

Pixies

Cifra: Principal
exibições 75
Tom: B
Intro:

    B        F#       G#m               E     B        F#    G#m E
E|---------|--------|-----------------|-----|-------------------------| 
B|---------|--------|-----------------|-----|-------------------------|
G|------4~-|--------|------4~-4-4-----|-4~--|-------------------------|
D|--4/6----|--------|--4/6----6-6---6-|-----|-------------------------|
A|---------|-4/6-4~-|-----------------|-----|--4/6-6-6-4~----6-4------|
E|---------|--------|-----------------|-----|--------------7-----7~---|


2nd part of intro and Verse: 

   G#m               G#m    F#       G       G#m      B     Ebm
E|--------------|--|-----------------3-----|----------7777--11-11-11-11-| 
B|--------------|--|-----------------3-----|----------7777--11-11-11-11-|
G|--------------|--|-----------------4-----|----------8888--11-11-11-11-| x3
D|--------------|x3|---------------4-5-----|----------------------------|
A|----6-5-------|--|---6-5-----2-1-------4-|---6-5----------------------|
E|--4-----7-6-7-|--|-4-----7-2---------3---|-4-----7--------------------|


E|---------------| 
B|---------------|
G|---------------|
D|---------------|
A|---7-6---------|
E|-4-----7-6-5-4-|


 go into Chorus: 


G#m        F#            B      Bb
  I am in love with your daughter 
C#m              Ebm    G#m F#
  And though she has no need 
B         Ebm       G#m      F#
  I'm the one who's got some trotters 
C#m           F#        B
  You've many mouths to feed 

B       F#
  Indie   Cindy 
G#m                E
   Be in love with me 
B          F#     G#m   E
 I beg for you to carry me 
refrão


Verse: 

   G#m               pause    F#       G       G#m     B     Ebm
E|--------------|--|------|-----------3-----|----------7777--11-11-11-11-| 
B|--------------|--|------|-----------3-----|----------7777--11-11-11-11-|
G|--------------|--|------|-----------4-----|----------8888--11-11-11-11-|
D|--------------|x3|------|---------4-5-----|----------------------------|
A|----6-5-------|--|------|-----2-1-------4-|---6-5----------------------|
E|--4-----7-6-7-|--|------|-7-2---------3---|-4-----7--------------------|


Solo (most notes are with tremolo picking - listen to the song): 

E|-----------------------|----------------|----------------------------| 
B|-----------------------|----------------|----------------------------|
G|---------------------4-|---------------4|--------------------------4-|
D|-4/6666-4/6666-4-6-----|-4/666666664----|-6-4-5-6-7-8-9-10---------6-|
A|-------------------6---|-------------6--|----------------------5b6---|
E|-----------------------|----------------|------------------3b4-------|


E|--4444-------| 
B|--4444444444-|The last note feedback into the last verse.
G|-------------|You can emulate the sound by playing 11 on
D|-------------|high e string.
A|-------------|
E|-------------|


Last Verse: 

  G#m                G#m    F#       G       G#m      B     Ebm
E|--------------|--|-----------------3-----|----------7777--11-11-11-11-| 
B|--------------|--|-----------------3-----|----------7777--11-11-11-11-|
G|--------------|--|-----------------4-----|----------8888--11-11-11-11-|
D|--------------|x3|---------------4-5-----|----------------------------|
A|----6-5-------|--|---6-5-----2-1-------4-|---6-5----------------------|
E|--4-----7-6-7-|--|-4-----7-2---------3---|-4-----7--------------------|


E|---------------| 
B|---------------|
G|---------------|
D|---------------|
A|---7-6---------|
E|-4-----7-6-5-4-|


 go into Chorus: 


G#m        F#            B      Bb
  I am in love with your daughter 
C#m              Ebm    G#m F#
  And though she has no need 
B         Ebm       G#m      F#
  I'm the one who's got some trotters 
C#m           F#        B  Bb
  You've many mouths to feed 

G#m        F#            B      Bb
  I am in love with your daughter 
C#m              Ebm    G#m F#
  And though she has no need 
B         Ebm       G#m      F#
  I'm the one who's got some trotters 
C#m           F#        B
  You've many mouths to feed 

B       F#
  Indie   Cindy 
G#m                E
   Be in love with me 
B          F#     G#m   E
 I beg for you to carry me 
refrão


repeat last part three times and then last line two more times and end on B


Eb tuning (EbAbDbGbBbEb): 

------------------------- 


    C        G         Am               F     C        G    Am  F
E|---------|--------|-----------------|-----|-------------------------| 
B|---------|--------|-----------------|-----|-------------------------|
G|------5~-|--------|------5~-5-5-----|-5~--|-------------------------|
D|--5/7----|--------|--5/7----7-7---7-|-----|-------------------------|
A|---------|-5/7-5~-|-----------------|-----|--5/7-7-7-5~----7-5------|
E|---------|--------|-----------------|-----|--------------8-----8~---|


2nd part of intro and Verse: 

   Am                Am       G       G#     Am       C     Em
E|--------------|--|-----------------4-----|----------8888--12-12-12-12-| 
B|--------------|--|-----------------4-----|----------8888--12-12-12-11-|
G|--------------|--|-----------------5-----|----------9999--12-12-12-12-| x3
D|--------------|x3|---------------5-6-----|----------------------------|
A|----7-6-------|--|---7-6-----3-2-------5-|---7-6----------------------|
E|--5-----8-7-8-|--|-5-----8-3---------4---|-5-----8--------------------|


E|---------------| 
B|---------------|
G|---------------|
D|---------------|
A|---8-7---------|
E|-5-----8-7-6-5-|


 go into Chorus: 

Chorus: 
For the first part of the Chorus (until the "Indie Cindy" part), I think it sounds  
better to plays barre chords. C - x35553  Dm - x57765  Em - x79987
Am        G              C      B
  I am in love with your daughter 
Dm               Em    Am G
  And though she has no need 
C         Em        Am       G
  I'm the one who's got some trotters 
Dm            G         C
  You've many mouths to feed 

C       G
  Indie   Cindy 
Am                F
   Be in love with me 
C          G     Am   F
 I beg for you to carry me 

Verse: 

  Am                  pause    G        G#      Am      C     Em
E|--------------|--|------|-----------4-----|----------8888--12-12-12-12-| 
B|--------------|--|------|-----------4-----|----------8888--12-12-12-11-|
G|--------------|--|------|-----------5-----|----------9999--12-12-12-12-|
D|--------------|x3|------|---------5-6-----|----------------------------|
A|----7-6-------|--|------|-----3-2-------5-|---7-6----------------------|
E|--5-----8-7-8-|--|------|-8-3---------4---|-5-----8--------------------|


Solo (most notes are with tremolo picking - listen to the song): 

E|-----------------------|----------------|------------------------------| 
B|-----------------------|----------------|------------------------------|
G|---------------------5-|---------------5|----------------------------5-|
D|-5/7777-5/7777-5-7-----|-5/777777775----|-7--5-6-7-8-9-10-11---------7-|
A|-------------------7---|-------------7--|------------------------6b7---|
E|-----------------------|----------------|--------------------4b5-------|


E|--5555-------| 
B|--5555555555-|The last note feedback into the last verse.
G|-------------|You can emulate the sound by playing 12 on
D|-------------|high e string.
A|-------------|
E|-------------|


Last Verse: 

  Am                 Am    G       G#      Am      C     Em
E|--------------|--|-----------------4-----|----------8888--12-12-12-12-| 
B|--------------|--|-----------------4-----|----------8888--12-12-12-11-|
G|--------------|--|-----------------5-----|----------9999--12-12-12-12-|
D|--------------|x3|---------------5-6-----|----------------------------|
A|----7-6-------|--|---7-6-----3-2-------5-|---7-6----------------------|
E|--5-----8-7-8-|--|-5-----8-3---------4---|-5-----8--------------------|


E|---------------| 
B|---------------|
G|---------------|
D|---------------|
A|---8-7---------|
E|-5-----8-7-6-5-|


 go into Chorus: 
 
Am        G              C      B
  I am in love with your daughter 
Dm               Em    Am G
  And though she has no need 
C         Em        Am       G
  I'm the one who's got some trotters 
Dm            G         C   B
  You've many mouths to feed 

Am        G              C      B
  I am in love with your daughter 
Dm               Em    Am G
  And though she has no need 
C         Em        Am       G
  I'm the one who's got some trotters 
Dm            G         C
  You've many mouths to feed 

C       G
  Indie   Cindy 
Am                F
   Be in love with me 
C          G     Am   F
 I beg for you to carry me
  • 1
  • 2
  • 3
  • 4
  • 5
  • 6
  • 7
  • 8
  • 9
  • 10
  • 11
  • 12
    Acordes para:
      Colaboração e revisão:
      • Pedro

      0 comentários

        mostrar mais comentários

        Conseguiu tocar?

        0tocaram0ainda não

        Grave um vídeo tocando Indie Cindy e mande pra gente!

        00:00 / 00:00
        outros vídeos desta música
        repetirqualidadeautomática
        • automática
        Outro vídeos desta música
          00:00 / 00:00
          automática
          • automática
          Acordes para:violão e guitarra
          dificuldadeexibiçõescontribuições
          fecharplay/pause subir/descer velocidade
            Acordes para:violão e guitarra
            acordes
            fechar
            OK