Cifra Club

Where Is My Mind

Pixies

Cifra: Principal (violão e guitarra)
tom: E
[Intro] E  C#m  G#  A 

E|---4---4---4---4---4---4-----------------|
B|-5---5---5---5---4---4---5-5p4-5p4-------|
G|-----------------------------------------|
D|-----------------------------------------|
A|-----------------------------------------|
E|-----------------------------------------|

          E                        C#m                 G#  A
With your feet on the air and your head on the ground
E                C#m   G#        A
   Try this trick and spin it,  Yeah
E                    C#m              G#
  Your head will collapse but there's nothing in it
           A
And you'll ask yourself

[Refrão]

E           C#m
Where is my mind?
G#m                 A
   Where is my mind?
E           C#m   G#m  A   E  C#m  G#  A
Where is my mind?
E   G#        A            Am         C#  B
Way out in the water see it swimmin'

E|---4---4---4---4---4---4-----------------|
B|-5---5---5---5---4---4---5-4-5-4-5-4-5-4-|
G|-----------------------------------------|
D|-----------------------------------------|
A|-----------------------------------------|
E|-----------------------------------------|

E             C#m            G#   A
I was swimmin' in the Carribean
E              C#m    G#          A
  Animals were hiding behind the rock
E                    C#m            G#                              A
  Except the little fish but they told me, he swears tryin' to talk to me to me to me

[Refrão]

E           C#m
Where is my mind?
G#m                 A
   Where is my mind?
E           C#m   G#m  A   E  C#m  G#  A
Where is my mind?
E   G#        A            Am        C#  B
Way out in the water see it swimmin'

[Solo]

[Guitarra 1]

E|--------------------------------------------|
B|--9b--r-9b--r-------------------------810---|
G|--9b--r-9b--r--9b--9r-9-9-7----7---9--------|
D|----------------------------9---------------|
A|--------------------------------------------|
E|--------------------------------------------|

[Guitarra 2]

E|--------------------------------------------|
B|--7-----7-----------------------------------|
G|--9b--r-9b--r--9b--9r-9-9-7-7----7--9--7----|
D|------------------------------9-----------9-|
A|--------------------------------------------|
E|--------------------------------------------|

[Guitarra 1]

E|--------10-12-12-12b-r-13b--r-13b--r-13b--r-----|
B|-10-12------------------------------------------|
G|------------------------------------------------|
D|------------------------------------------------|
A|------------------------------------------------|
E|------------------------------------------------|

[Guitarra 2]

E|-------------10---12b--r-12b--r-12b--r-12b--r---|
B|-----7-10-12------------------------------------|
G|-7-9--------------------------------------------|
D|------------------------------------------------|
A|------------------------------------------------|
E|------------------------------------------------|

[Guitarra 1]

( E  C#m  G#m  A )

[Guitarra 2]

E|---4---4---4---4---4---4------------------------|
B|-5---5---5---5---4---4---5-4-5-4-5-4-5-4--------|
G|------------------------------------------------|
D|------------------------------------------------|
A|------------------------------------------------|
E|------------------------------------------------|

          E                        C#m                 G#  A
With your feet in the air and your head on the ground 
E                C#m   G#      A
   Try this trick and spin it yeah

[Guitarra 1] 

( E  C#m  G#  A )
( E  C#m  G#  A )

[Guitarra 2]

E|---4---4---4---4---4---4------------------------|
B|-5---5---5---5---4---4---5-4-5-4-5-4-5-4--------|
G|------------------------------------------------|
D|------------------------------------------------|
A|------------------------------------------------|
E|------------------------------------------------|

E|------------------------------------------------|
B|------------------------------------------------|
G|------------------------------------------------|
D|------------------------------------------------|
A|---------4-4-4-4---------0-0-0-0----------------|
E|-0-0-0-0---------4-4-4-4------------------------|

E|------------------------------------------------|
B|------------------------------------------------|
G|------------------------------------------------|
D|------------------------------------------------|
A|------------------------------------------------|
E|-0-0-0-0-0-4-4-4-4-4-5-5-5-5-5-5-5-5------------|

E|------------------------------------------------|
B|------------------------------------------------|
G|------------------------------------------------|
D|------------------------------------------------|
A|------------------------------------------------|
E|-4-----2-2-2-2-2-2-2-2-2-2-2-2-2----------------|
00:00 / 00:00
Outros vídeos desta música
Repetir
Outros vídeos desta música
Composição de Black Francis
232.574 exibições
    • ½ Tom
    • A
    • Bb
    • B
    • C
    • Db
    • D
    • Eb
    • E
    • F
    • F#
    • G
    • Ab
  • Adicionar à lista

    0 comentários

    Ver todos os comentários

    Conseguiu tocar?

    72 Tocaram 8 Ainda não

    Grave um vídeo tocando Where Is My Mind e nos envie!

    Entre para oCifra Club PRO

    Tenha acesso a benefícios exclusivos no App e no Site

    • Chega de anúncios

    • Prioridade de compra em lançamentos

    • Mais recursos no app do Afinador

    • Atendimento Prioritário

    • Descontos nos produtos Cifra Club

    • Ajude a produzir mais conteúdo

    00:00 / 00:00

    Cifra Club Pro

    Aproveite o Cifra Club com benefícios exclusivos e sem anúncios
    Cifra Club Pro
    Aproveite o Cifra Club com benefícios exclusivos e sem anúncios
    OK