Cifra Club

Aprenda

20th Century Boy

Placebo

Cifra: Principal (violão e guitarra)
tom: C
INTRO

E|-0-0-0----0-0-0---------------------
B|-0-0-0----0-0-0---------------------
G|-1-1-1----1-1-1---------------------
D|-2-2-2----2-2-2---------------------
A|-2-2-2----2-2-2---------------------
E|-0-0-0----0-0-0---------------------

PART #1

E|-0-0-0--0-0-0-0-0-0-0-0-------------
B|-0-0-0--0-0-0-0-0-0-0-0-------------
G|-1-1-1--1-1-1-1-1-1-1-1-------------
D|-2-2-2--2-2-2-2-2-2-2-2-------------
A|-2-2-2--2-2-2-2-2-2-2-2-------------
E|-0-0-0--0-0-3-0-3-0-3-0-------------

VERSE: BELOW (FOLLOWED BY PART #1) LISTEN AND PLAY ALONG...YOU'LL KNOW WHAT I MEAN!

E|-5-5-5-5-5-5-5-5-5-5-5-5-5-5-5-5-5-5-5-5----------
B|-5-5-5-5-5-5-5-5-5-5-5-5-5-5-5-5-5-5-5-5----------
G|-6-6-6-6-6-6-6-6-6-6-6-6-6-6-6-6-6-6-6-6----------
D|-7-7-7-7-7-7-7-7-7-7-7-7-7-7-7-7-7-7-7-7----------
A|-7-7-7-7-7-7-7-7-7-7-7-7-7-7-7-7-7-7-7-7----------
E|-5-5-5-5-5-5-5-5-5-5-5-5-5-5-5-5-5-5-5-5----------

"AND ITS PLAIN TO SEE... " BIT

E|-5-5-5-5-5-5-5-5-5-7-7-7-7-7-7-7-7----------
B|-5-5-5-5-5-5-5-5-5-7-7-7-7-7-7-7-7----------
G|-6-6-6-6-6-6-6-6-6-8-8-8-8-8-8-8-8----------
D|-7-7-7-7-7-7-7-7-7-9-9-9-9-9-9-9-9----------
A|-7-7-7-7-7-7-7-7-7-9-9-9-9-9-9-9-9----------FOLLOW WITH AN Em CHORD(SEE INTRO)
E|-5-5-5-5-5-5-5-5-5-7-7-7-7-7-7-7-7----------

CHORUS:

E|---------------------------------------------------------
B|---------------------------------------------------------
G|-9-9-9-7-7-9-9-9-9-9-9-9-9-9-9-9-10-9--------------------
D|-9-9-9-7-7-9-9-9-9-9-9-9-9-9-9-9-10-9--------------------
A|-7-7-7-5-5-7-7-7-7-7-7-7-7-7-7-7-8--7--5-----------------
E|-0-0-0-0-0-0-0-0-0-0-0-0-0-0-0-0-0--0-----7--5--3--------
Composição de Marc Bolan
Colaboração e revisão:
  • Ludmilla Correa
2.010 exibições
    • ½ Tom
    • A
    • Bb
    • B
    • C
    • Db
    • D
    • Eb
    • E
    • F
    • F#
    • G
    • Ab
  • Adicionar à lista

    0 comentários

    Ver todos os comentários

    Conseguiu tocar?

    0 Tocaram 0 Ainda não

    Grave um vídeo tocando 20th Century Boy e nos envie!

    00:00 / 00:00
    outros vídeos desta música
    repetir qualidade Automático
    Outros vídeos desta música
    00:00 / 00:00
    Automático

    Cifra Club Pro

    Aproveite o Cifra Club com benefícios exclusivos e sem anúncios
    Cifra Club Pro
    Aproveite o Cifra Club com benefícios exclusivos e sem anúncios
    OK