Cifra Club

1, 2, 3, 4

Plain White T's

Cifra: Principal (violão e guitarra)
Tom: D
Intro:  D  A  Bm  A  G  D  Gm

(Riff)
E|-------------------------------7---9---10----------10--12--10--10-|
B|--10---7---10-----10-------10----------------------11--12--11--10-|
G|---------------9-------7------------------------------------------|
D|------------------------------------------------------------------|
A|------------------------------------------------------------------|
E|------------------------------------------------------------------|

(Verso 1)
D
give me more lovin then i've ever had.
A
make it all better when i'm feelin sad.
Bm                                            A A7
tell me that i'm special even when i know i'm not.
D
make me feel good when i hurt so bad.
A
barely gettin mad
              Bm
im so glad i found you.
               A
i love bein around you.
             G
you make it easy
           A
as easy as 1 2 (1 2 3 4.)

(Refrão)
             D         A       Bm          A    G Gm
theres only one thing two do three words four you.
  D
i love you.
 G Gm   D
(i love you)

             D       A              Bm
theres only one way two say those three words
      A               G Gm
and that's what i'll do.

  D
I love you.
 G Gm   D
(I love you)

(Verso 2)
D
give me more lovin from the very start.
A
piece me back together when i fall apart.
Bm                                               A A7
tell me things you never even tell your closest friends.
D
make me feel good when i hurt so bad.
A                                      Bm
best that i've had im so glad that i found you.
              A
I love bein around you.

             G              A
you make it easy as easy as 1 2 (1 2 3 4.)

(Vefrão)
             D         A      Bm          A     G Gm
theres only one thing two do three words four you.
  D
I love you.

             D      A              Bm
theres only one way two say those three words
    A                 G Gm
and that's what i'll do.
  D          G Gm   D
I love you.  I love you

E|------------------------------------------------------------------------------|
B|-5/7--7-7p5---5h7--7--5/7--7-7p5---5h7--7--5/7--7-7p5---5h7--7----5-----------|
G|------------7--------------------7--------------------7--------7-----7--6-----|
D|---------------------------------------------------------------------------7--|
A|------------------------------------------------------------------------------|
E|------------------------------------------------------------------------------|

E|--------------------------------------------------------------------|
B|-5/7--7-7p5---5h7--7--5/7--7-7--10-8-7-5-5--7-7---------7--5--------|
G|------------7-------------------------------------7-7-7-------7-----|
D|-----------------------------------------------------------------7--|
A|--------------------------------------------------------------------|
E|--------------------------------------------------------------------|

             G                A
you make it easy  as easy as 1234

Toca o acorde uma só vez:
            D          A      Bm         A      G Gm
theres only one thing two do three words four you
  D
i love you

             D       A             Bm
theres only one way two say those three words
A                G Gm
thats what ill do
  D
I love you

E|-------------------------------7---9---10----------10---10--------|
B|--10---7---10-----10-------10----------------------12---10--------|
G|---------------9-------7------------------------------------------|
D|------------------------------------------------------------------| (2x)
A|------------------------------------------------------------------|
E|------------------------------------------------------------------|

E|-10--12--10--10-|
B|-11--12--11--10-|
G Gm   D
i love you
exibições 127.555

0 comentários

mostrar mais comentários

Conseguiu tocar?

31 tocaram 1 ainda não

Grave um vídeo tocando 1, 2, 3, 4 e mande pra gente!

00:00 / 00:00
outros vídeos desta música
repetir qualidade Automático
Outros vídeos desta música
00:00 / 00:00
Automático
OK