Cifra Club

Aprenda

Down The Road

Plain White T's

Cifra: Principal (violão e guitarra)
tom: E
Solo

E|--------------------------------------------|
B|--------------------------------------------|
G|--9--11--13--11--8--9--11--9--8--9--11--8---|
D|--------------------------------------------|
A|--------------------------------------------|
E|--------------------------------------------|

E|--------------------------------------------|
B|--------------------------------------------|
G|--8--9--11----------8--9--11----------------|
D|------------11~---------------11~-----------|
A|--------------------------------------------|
E|--------------------------------------------|

E|------------------------------------------------|
B|-----------12b14-12b14-12~--12-10-9---15b17b19~-|
G|--11--9--8--------------------------------------|
D|------------------------------------------------|
A|------------------------------------------------|
E|------------------------------------------------|

E|-----------------------------------------------|
B|-----------------------------------------------|
G|-16-18-16-14--13-14-13-11~---11h13p11-9--13--8-|
D|-----------------------------------------------|
A|-----------------------------------------------|
E|-----------------------------------------------|

E|------------------------------------------------------------------------|
B|------------------------------------------------------------------------|
G|-8h9p8----8p9--11p9---13p11---11p9---14p13-----16p14---18p16---18/20~---|
D|------9~-----9-----11------13-----11------14~-------16------18----------|
A|------------------------------------------------------------------------|
E|------------------------------------------------------------------------|
Colaboração e revisão:
  • Renato
161 exibições
    • ½ Tom
    • A
    • Bb
    • B
    • C
    • Db
    • D
    • Eb
    • E
    • F
    • F#
    • G
    • Ab
  • Adicionar à lista

    0 comentários

    Ver todos os comentários
    00:00 / 00:00
    outros vídeos desta música
    repetir qualidade Automático
    Outros vídeos desta música
    00:00 / 00:00
    Automático

    Cifra Club Pro

    Aproveite o Cifra Club com benefícios exclusivos e sem anúncios
    Cifra Club Pro
    Aproveite o Cifra Club com benefícios exclusivos e sem anúncios
    OK