Cifra Club

Aprenda

Easy Way Out Intro

Plain White T's

Cifra: Principal (violão e guitarra)
tom: A
Standard Tuning(EADGBe)

  During chords
|------------------------------------------------------------------------|
|------------------------------------------------------------------------|
|-------------------------------------------------4-----2-1-2-1----------|
|-2-2-----2-4-2-----1-1-1-2-1---------2-2-----2-4---------------4-2-1----|
|-----4-----------------------2-----------4---------------------------4--|
|------------------------------------------------------------------------|
  Verse Chords
|------------------------------|
|------------------------------|
|--6-6-6-----------------4-4-4-|
|--6-6-6---7-7-7---------4-4-4-|
|--4-4-4---7-7-7---------2-2-2-|
|----------5-5-5---------------|

These chords are mainly the only chords used in this song besides the chorus.
If there are any questions, you can contact me at G*
669 exibições
    • ½ Tom
    • A
    • Bb
    • B
    • C
    • Db
    • D
    • Eb
    • E
    • F
    • F#
    • G
    • Ab
  • Adicionar à lista

    0 comentários

    Ver todos os comentários

    Conseguiu tocar?

    0 Tocaram 0 Ainda não

    Grave um vídeo tocando Easy Way Out Intro e nos envie!

    00:00 / 00:00
    outros vídeos desta música
    repetir qualidade Automático
    Outros vídeos desta música
    00:00 / 00:00
    Automático

    Cifra Club Pro

    Aproveite o Cifra Club com benefícios exclusivos e sem anúncios
    Cifra Club Pro
    Aproveite o Cifra Club com benefícios exclusivos e sem anúncios
    OK