Cifra Club

Aprenda

Hate I Really Dont Like You

Plain White T's

Cifra: Principal (violão e guitarra)
tom: A
"Love, love, love love love love" 
e|--------xx-|
B|--------xx-|
G|--6~----xx-|
D|--6~----xx-|
A|--4~----xx-|
E|--------xx-|

Main Riff: guitar one
e|-----------------------------------------------------|
B|-----------------------------------------------------|
G|-----------------------------------------------------|
D|--------------------------9---9-11-12-11---14-13-11--|
A|--4---4-6-7-6---9-11-12------------------------------|
E|-----------------------------------------------------|

guitar two
e|--------------------------------------|
B|--------------------------------------|
G|--6-6-6-6-----------4-4-4-4--2-2-2-2--|
D|--6-6-6-6--4-4-4-4--4-4-4-4--2-2-2-2--|
A|--4-4-4-4--4-4-4-4--2-2-2-2--0-0-0-0--|
E|-----------2-2-2-2--------------------|

verse
e|-----------------------------|
B|-----------------------------|
G|--6--6----------4--4---------|
D|--6--6---4--4---4--4---2--2--|
A|--4--4---4--4---2--2---2--2--|
E|---------2--2----------0--0--|

  "All I wanted was your love, love, love love love love"
e|----------------------|
B|----------------------|
G|--2-2-2-2-2-2-2-2~----|
D|--2-2-2-2-2-2-2-2~----|
A|--0-0-0-0-0-0-0-0~----|
E|----------------------|

Chorus: guitar one
e|---------------------------|--|--------------------------------------|--|
B|---------------------------|--|--------------------------------------|--|
G|--6--6----------4--4---2--2|--|--6-6-6-6-----------4-4-4-4--2-2-2-2--|--|
D|--6--6---4--4---4--4---2--2|--|--6-6-6-6--4-4-4-4--4-4-4-4--2-2-2-2--|--|
A|--4--4---4--4---2--2---0--0|x2|--4-4-4-4--4-4-4-4--2-2-2-2--0-0-0-0--|x2|
E|---------2--2--------------|--|-----------2-2-2-2--------------------|--|

guitar two
e|--------------------------------------------------------------------|--|
B|--------------------------------------------------------------------|--|
G|--6-6-6-6-6-6-6-6-6-6-6-6-6-6-6-6--4-4-4-4-4-4-4-4-4-4-4-4-4-4-4-4--|--|
D|--6-6-6-6-6-6-6-6-6-6-6-6-6-6-6-6--4-4-4-4-4-4-4-4-4-4-4-4-4-4-4-4--|--|
A|--4-4-4-4-4-4-4-4-4-4-4-4-4-4-4-4--2-2-2-2-2-2-2-2-2-2-2-2-2-2-2-2--|x4|
E|--------------------------------------------------------------------|--|

Bridge
e|---------------------------------------------------------------------|
B|---------------------------------------------------------------------|
G|-----------------------------------{-----------palm mute------------}|
D|--4-4-4-4-4-4-4-4--6-6-6-6-6-6-6-6--4-4-4-4-4-4-4-4--6-6-6-6-6-6-6-6-|
A|--4-4-4-4-4-4-4-4--6-6-6-6-6-6-6-6--4-4-4-4-4-4-4-4--6-6-6-6-6-6-6-6-|
E|--2-2-2-2-2-2-2-2--4-4-4-4-4-4-4-4--2-2-2-2-2-2-2-2--4-4-4-4-4-4-4-4-|
7.542 exibições
    • ½ Tom
    • A
    • Bb
    • B
    • C
    • Db
    • D
    • Eb
    • E
    • F
    • F#
    • G
    • Ab
  • Adicionar à lista

    0 comentários

    Ver todos os comentários

    Conseguiu tocar?

    0 Tocaram 0 Ainda não

    Grave um vídeo tocando Hate I Really Dont Like You e nos envie!

    00:00 / 00:00
    outros vídeos desta música
    repetir qualidade Automático
    Outros vídeos desta música
    00:00 / 00:00
    Automático

    Cifra Club Pro

    Aproveite o Cifra Club com benefícios exclusivos e sem anúncios
    Cifra Club Pro
    Aproveite o Cifra Club com benefícios exclusivos e sem anúncios
    OK