Cifra Club

Aprenda

Making A Memory

Plain White T's

Cifra: Principal (violão e guitarra)
tom: F
Making a Memory
Every Second Counts


Intro:
|--------------------------|-------------------3---3-|
|-----3-----3------3-------|-----3-----3-----3---3---|
|---0-----0------0-----0---|---0-----0-----0---------|
|-0-----2------3-----0-----|-0-----2-----3-----------|
|------------------------3-|-------------------------|
|--------------------------|-------------------------|


Verse:

C -> G -> am -> F
Between the am and F play the g-string open to create a C chord, it's a quick little shot.


Pre Chorus 1:
|-----------------------3-|
|-----3-----3-----3---3---|
|---0-----0-----0---0-----|
|-0-----2-----3-----------|
|-------------------------|
|-------------------------|


Chorus:

C5 -> G5 -> A5 -> F5
C5 -> G5 -> A5 -> G5 -> F5 -> G5
After last line of chorus play a few of C5


Pre Chorus 2:
|--------------------------|-----------------3-3---3-|
|-----3-----3------3-------|-----3-----3---3-----3---|
|---0-----0------0-----0---|---0-----0---0-----------|
|-0-----2------3-----0-----|-0-----2-----------------|
|------------------------3-|-------------------------|
|--------------------------|-------------------------|


Bridge:

D5 -> B5 -> A5  x3
F5 -> G5


Pre Chorus 3:
Friday night's such a beautiful night, now you're stayin...

C -> G -> F -> G5

_____________________________________________

Song Order
Intro
Verse
Pre Chorus 1
Chorus
Verse
Pre Chorus 2
Chorus
Bridge
Pre Chorus 3
Chorus
_____________________________________________

This is a fairly accurate tab.  Like always, feel free to correct it if you find problems.
Composição de Mike Daly / Tom Higgenson
3.855 exibições
    • ½ Tom
    • A
    • Bb
    • B
    • C
    • Db
    • D
    • Eb
    • E
    • F
    • F#
    • G
    • Ab
  • Adicionar à lista

    0 comentários

    Ver todos os comentários

    Conseguiu tocar?

    0 Tocaram 0 Ainda não

    Grave um vídeo tocando Making A Memory e nos envie!

    00:00 / 00:00
    outros vídeos desta música
    repetir qualidade Automático
    Outros vídeos desta música
    00:00 / 00:00
    Automático

    Cifra Club Pro

    Aproveite o Cifra Club com benefícios exclusivos e sem anúncios
    Cifra Club Pro
    Aproveite o Cifra Club com benefícios exclusivos e sem anúncios
    OK