Cifra Club

Aprenda

Natural Disaster

Plain White T's

Cifra: Principal (violão e guitarra)
tom: D
Intro 4x: D  F#m 
E|------------------------------------------------|
B|-------------7-10-7---7---------------7---7-----|
G|-9-9-7-9-9-9--------9-----9-9-7-9-9-9---6---9-6-|
D|------------------------------------------------|
A|------------------------------------------------|
E|------------------------------------------------|
E|---------------------------------------------------|
B|-------------7-10-7---7---------------7---7--------|
G|-9-9-7-9-9-9--------9-----9-9-7-9-9-9---6---9-6/7~-|
D|---------------------------------------------------|
A|---------------------------------------------------|
E|---------------------------------------------------|
(Solo Baixo)
E|------------------------------------------------|
B|------------------------------------------------|
G|------------------------------------------------|
D|------------------------------------------------|
A|-2222222222-------------------------------------|
E|------------2222222222-3x-3333333333-5555555555-|

                       Bm7
She said she saw me on TV
F#m                            Bm7
   This girl's a legend in the late night scene
F#m                             Bm7
   And you can see she aimed to please
F#m                                 G           A
   Cause she just wouldn't take her eyes off me

                           Bm7
She made the music come to life
F#m                          Bm7
   She moved her body like a butcher knife
F#m                         Bm7
   Chopping up every guy in sight
F#m                     G                            A
   She was mysterious, I could not resist to save my life

Refrão:
D                    F#m
I don't know what this girl was after
        D        F#m
She's a natural, natural disaster
D               F#m
She's so sexy, I  had to have her
        D        F#m
She's a natural, natural disaster
E|------------------------------------------------|
B|----5/17---15---14---12---10---9---7------------|
G|------------------------------------------------|
D|------------------------------------------------|
A|------------------------------------------------|
E|------------------------------------------------|  (2x)
Bm   F#m             Bm7  F#m
     Natural disater

                            Bm7
Now when she left me on the floor
F#m                              Bm7
   She knew I'd follow her right out that door
F#m                               Bm7
   She'd always leave you craving more
F#m                             G          A
   Just the addiction I've been waiting for

                           Bm7
She made the music come to life
F#m                            Bm7
   Staring me down with those electric eyes
F#m                                 Bm7
   And when she said 'Your place or mine?'
F#m                  G                            A
   I was delirious, I could not resist to save my life

(Refrão)

Ponte:
D  F#m  Bm7
All my  love

What's your name, What's your game, show me how to play
D   F#m   Bm7
All night long

Cause I can see you and me going all the way
D   F#m   Bm7
All night long

And I don't even really care what you're after
D   F#m   Bm7
All night long
                          A
As long as you keep going faster and faster

( D  F#m ) (4x)

                       Bm7
She said she saw me on TV
F#m                           Bm7
  This girl's a legend in the late night scene
F#m                             Bm7
   And you can see she aimed to please
F#m                                 G
   Cause she just wouldn't take her eyes off me

D                    F#m
I don't know what this girl was after
        D        F#m
She's a natural, natural disaster
D               F#m
She's so sexy, I  had to have her
        D        F#m
She's a natural, natural disaster

D                 F#m
I don't know what this girl was after
        D        F#m
She's a natural, natural disaster
D               F#m
She's so sexy, I  had to have her
        D        F#m
She's a natural, natural disaster
Bm   F#m             Bm7  A
     Natural disater
Composição de Tom Higgenson
Colaboração e revisão:
  • Renato
  • Yan Menezes
  • steingt s
12.315 exibições
    • ½ Tom
    • A
    • Bb
    • B
    • C
    • Db
    • D
    • Eb
    • E
    • F
    • F#
    • G
    • Ab
  • Adicionar à lista

    0 comentários

    Ver todos os comentários

    Conseguiu tocar?

    1 Tocaram 0 Ainda não

    Grave um vídeo tocando Natural Disaster e nos envie!

    00:00 / 00:00
    outros vídeos desta música
    repetir qualidade Automático
    Outros vídeos desta música
    00:00 / 00:00
    Automático

    Cifra Club Pro

    Aproveite o Cifra Club com benefícios exclusivos e sem anúncios
    Cifra Club Pro
    Aproveite o Cifra Club com benefícios exclusivos e sem anúncios
    OK