Cifra Club

dig dig dig (hempa)

Planet Hemp

Tab de baixo: Principal
G|------------------------|\
D|------------------------| \  BASE   
A|-3--3-3--3--3-----------| /  
E|------------------3-3-3-|/


"DIG DIG DIG PLANET HEMPA

G|----------------------------|\
D|----------------------------| \   REFRÃO
A|-3-3-3-3-3--3-3-3--3-3-3--1-| /  
E|----------------------------|/


"não deixe que a cultura abafe a realidade maconha não mata e isso é verdade" 


G|------------------------|\
D|------------------------| \ 
A|-1---3------------------| /  X4
E|------------------------|/

FINAL:

G|------------------------|\
D|------------------------| \  
A|-3--3-3--3--3-----------| /  X3
E|------------------3-3-3-|/


G|------------------------|\
D|------------------------| \ 
A|-3--3-3--3--3-----------| /
E|------------------------|/
00:00 / 00:00
Outros vídeos desta música
Repetir
Outros vídeos desta música
Composição de Bacalhau / Formiga / Marcelo D2 / Planet Hemp / Rafael Crespo
Colaboração e revisão:
  • joao contrabaixista
1.612 exibições

0 comentários

Ver todos os comentários

Conseguiu tocar?

0 Tocaram 0 Ainda não

Grave um vídeo tocando dig dig dig (hempa) e nos envie!

Entre para oCifra Club PRO

Tenha acesso a benefícios exclusivos no App e no Site

  • Chega de anúncios

  • Prioridade de compra em lançamentos

  • Mais recursos no app do Afinador

  • Atendimento Prioritário

  • Descontos nos produtos Cifra Club

  • Ajude a produzir mais conteúdo

00:00 / 00:00

Cifra Club Pro

Aproveite o Cifra Club com benefícios exclusivos e sem anúncios
Cifra Club Pro
Aproveite o Cifra Club com benefícios exclusivos e sem anúncios
OK