Cifra Club

Aprenda

Fazendo A Cabeça

Planet Hemp

Cifra: Principal (violão e guitarra)
Já pensou em usar uma coleção de roupas do Cifra Club? Responda as perguntas abaixo e nos ajude nessa missão! →
tom: D
(intro)
E|-----------------------------------------------
B|-----------------------------------------------
G|-----------------------------------------------
D|-----------------------------------------------
A|--7--------5-----------------------------------
E|-----5h7-------3---5---3----0------------------

(riff principal 4x)
E|-----------------------------------------------
B|-----------------------------------------------
G|-----------------------------------------------
D|-----------------------------------------------
A|--5/7---------5--------------------------------
E|--------5p7-------3---5-------3----------------

(4x)
E|--12/3-----------------------------------------
B|--12/3-----------8/10--------------------------
G|-----------------7/9---------------------------
D|-----------------5/7---------------------------
A|-----------------------------------------------
E|-----------------------------------------------

(base)
E|-----------------------------------------------
B|-----------------------------------------------
G|-----------------------------------------------
D|-----------------------------------------------
A|--0---2---5---2--0p2---------------------------
E|-----------------------------------------------

E|-----------------------------------------------
B|-----------------------------------------------
G|-----------------------------------------------
D|-----------------------------------------------
A|-----------------------------------------------
E|--12--11--10----7-----6----3---5----3---0------

(solo)
E|---------------------9-------------------------
B|-----8--10---8--10-----------------------------
G|--9--------------------------------------------
D|-----------------------------------------------
A|-----------------------------------------------
E|-----------------------------------------------

HEY, Fazendo a sua cabeça !

Fazendo a sua cabeça, no rio de janeiro
praia, favela, maconha bebida, puteiro,
tiroteio, arrastão, já está aceso o pavio
mas como diz o black future "eu sou do rio".
1, 2, 3, pra vocês levar um tiro
eu tenho pena de você, otário
se cruzar comigo a erva não é perigosa,
mas eu ofereço perigo
se eu te pego te dou um sacode depois te jogo no lixo
planet hemp, mermão "é o bicho, é o bicho"
Tem gente fazendo a tua cabeça e te jogando no buraco
com preconceito, não dê mole, tome cuidado,
pense duas vezes pra não acabar ajoelhado.
Passa a bola, não enrola, de uma goma, não se esqueça
Planet hemp fazendo a sua cabeça,

Fazendo a sua cabeça !
Fazendo a sua cabeça !
Fazendo a sua cabeça !
Planet hemp, fazendo sua cabeça !

Eles querem a sua cabeça e querem que você diga ''não''
faça você a sua cabeça e pense um pouco meu irmão.
Não falo só da maconha, eu tenho muito pra dizer,
ouça planet hemp pra depois cê não se fuder.
Falo, falo, falo, falo e você vai ter que me escutar,
porque maconha, meu irmão não pode lhe prejudicar,
não pode te prejudicar então é bom cê se ligar
cuidado vacilão, porque senão vou te apagar
porque da onde eu vim eu sei o gatilho é a lei
então não se esqueça, fazendo a sua cabeça !

Fazendo a sua cabeça !
Fazendo a sua cabeça !
Fazendo a sua cabeça !
Planet hemp, fazendo sua cabeça !

Fazendo a sua cabeça com a cultura do arrastão
pra você poder sobreviver, cê tem queter boa educação.
Boa educação que eu to falando não são boas maneiras,
é saber distinguir, o pó da poeira.
Porque malandro quando tá na pior sabe sair de lá,
de lá o único barulho que eu escuto é rá-tátá rá-tatá.
cê tem que fazer a sua cabeça com que você bem quiser
ninguém pode impedir se você sabe o que quer.
chega de hipocrisia, pare antes que eu enlouqueça
então não esqueça, fazendo a sua cabeça !

Fazendo a sua cabeça !
Fazendo a sua cabeça !
Fazendo a sua cabeça !
Planet hemp, fazendo sua cabeça !
Composição de Bacalhau / Formiga / Marcelo D2 / Planet Hemp
Colaboração e revisão:
  • Noel
  • Bruno Silva
55.762 exibições
    • ½ Tom
    • A
    • Bb
    • B
    • C
    • Db
    • D
    • Eb
    • E
    • F
    • F#
    • G
    • Ab
  • Adicionar à lista

    0 comentários

    Ver todos os comentários

    Conseguiu tocar?

    5 Tocaram 0 Ainda não

    Grave um vídeo tocando Fazendo A Cabeça e nos envie!

    00:00 / 00:00
    Outros vídeos desta música
    Repetir Qualidade Automático
    Outros vídeos desta música
    00:00 / 00:00
    Automático

    Cifra Club Pro

    Aproveite o Cifra Club com benefícios exclusivos e sem anúncios
    Cifra Club Pro
    Aproveite o Cifra Club com benefícios exclusivos e sem anúncios
    OK