Cifra Club

Aprenda

Desde As Estrelas

Planta e Raiz

Cifra: Principal (violão e guitarra)
tom: C
Intro: 
               Am         C         G
E|------------5----------9---------3--------------------|
B|------------5----------9---------3--------------------|
G|------------5----------10--------2--------------------|
D|------------3----------11--------5--------------------|
A|------------3----------11--------5--------------------|
E|------------x----------x---------x--------------------|

E|------------------------------------------------------|
B|------------------------------8-10/12-12~-------------|
G|----------7----------------7--------------------------|
D|----5-7/9---7-5-------5/9-----------------------------|
A|--7---------------------------------------------------|
E|------------------------------------------------------|

Primeira Parte:

Am                C
Desde as estrelas
                G
Até o fundo do mar
E|------------------------------------------------------|
B|----7h8p7h8-------------------------------------------|
G|------------9/7---7-----------7-----------------------|
D|----------------9---7-5-5h7-9-------------------------|
A|------------------------------------------------------|
E|------------------------------------------------------|

Am
Nunca se viu 
C                                G
Coisa tão bela, dentro desse planeta
E|--------5-7b-8-7--------------------------------------|
B|----5-8-----------------------------------------------|
G|------------------------------------------------------|
D|------------------------------------------------------|
A|------------------------------------------------------|
E|------------------------------------------------------|

Refrão(2x):

Am
Nada tem valor sem ter você na minha frente
C
Tudo é diferente se você está
E|------------------------------------------------------|
B|---------------------8--------------------------------|
G|------9p7--------7/9----------------------------------|
D|------------9p7---------------------------------------|
A|------------------------------------------------------|
E|------------------------------------------------------|

G
O raio de sol, a cor do luar, estrela cadente, as ondas do mar
Am
Tudo faz sentido se você está
C                                G
O mundo é colorido se você está aqui 
E|-------------------------------------------------------8/10--|
B|--12/10---------------12h13p12-10/8-------8-------8-10-------|
G|----------12/9--12--------------------9p7------7h9------------|
D|-------------------------------------------------------------|
A|-------------------------------------------------------------|
E|-------------------------------------------------------------|

Am
Nada tem valor sem ter você na minha frente
C
Tudo é diferente se você está
G
O raio de sol, a cor do luar, estrela cadente, as ondas do mar
E|-------------------------------------------------------------|
B|-10/12-10----------------------------------------------------|
G|----------12------------7------------------------------------|
D|----------------5h7-7/9---7-5--------------------------------|
A|-------------------------------------------------------------|
E|-------------------------------------------------------------|

Am
Tudo faz sentido se você está
C                                G
O mundo é colorido se você está aqui
E|----------------------------------------7--------------------|
B|------------------------------------------8------------------|
G|-----------7------------------7-----7h9-----9-7---7----------|
D|---5h7-7/9---7-5----------5h7--7-5--------------9---7-5------|
A|----------------------5h7------------------------------------|
E|-------------------------------------------------------------|

 ( Am C G ) (2x) Ooh Ohh
E|---------------------------------------------------------------------------------|
B|-------------------------------------------------------------7h8p7---------------|
G|-------------------------------------------------7-7h9---7---------9p7---7-------|
D|----5-7/9-5h7-5------5-7/9-5h7-5------9-7----7-9-------9---------------9----7-5--|
A|--7-------------7--7-------------7--------10-------------------------------------|
E|---------------------------------------------------------------------------------|

E|---------------------------------------------------------------------------------|
B|------------------------------------------------8--------------------------------|
G|-------------------------------------------7h9-----------------------------------|
D|----5-7/9-5h7-5------5-7/9-5h7-5------5h7----------------------------------------|
A|--7-------------7--7-------------7-----------------------------------------------|
E|---------------------------------------------------------------------------------|


Primeira Parte:
Am                C
Desde as estrelas
                G
Até o fundo do mar
Am
Nunca se viu 
C                                G
Coisa tão bela, dentro desse planeta

Refrão:
Am
Nada tem valor sem ter você na minha frente
C
Tudo é diferente se você está
G
O raio de sol, a cor do luar, estrela cadente, as ondas do mar
E|---------------------------------------10-12-----------------|
B|--10h12p10------10h12p10---------10h12--------12h13p12-------|
G|------------12-----------12----------------------------------|
D|-------------------------------------------------------------|
A|-------------------------------------------------------------|
E|-------------------------------------------------------------|

Am
Tudo faz sentido se você está
C                                G
O mundo é colorido se você está aqui 
E|-------------------------------------------------------------|
B|----------------------8-10/12/10-8----10/12-8----------------|
G|---------------7-9/11----------------------------------------|
D|--------5-7/9------------------------------------------------|
A|---5h7-------------------------------------------------------|
E|-------------------------------------------------------------|

 ( Am C G ) (2x) Ooh Ohh
E|-------------------------------------------------------------|
B|------------------------------------------------8------------|
G|-------------------------------------------7h9---------------|
D|----5-7/9-5h7-5------5-7/9-5h7-5------5h7--------------------|
A|--7-------------7--7-------------7---------------------------|
E|-------------------------------------------------------------|
Composição de Ivo Mozart / Tato Cruz / Zeider Pires
Colaboração e revisão:
  • Gabriel Moradillo
  • Mateus Mattos
25.395 exibições
    • ½ Tom
    • A
    • Bb
    • B
    • C
    • Db
    • D
    • Eb
    • E
    • F
    • F#
    • G
    • Ab
  • Adicionar à lista

    0 comentários

    Ver todos os comentários

    Conseguiu tocar?

    10 Tocaram 1 Ainda não

    Grave um vídeo tocando Desde As Estrelas e nos envie!

    00:00 / 00:00
    Outros vídeos desta música
    Repetir Qualidade Automático
    Outros vídeos desta música
    00:00 / 00:00
    Automático

    Cifra Club Pro

    Aproveite o Cifra Club com benefícios exclusivos e sem anúncios
    Cifra Club Pro
    Aproveite o Cifra Club com benefícios exclusivos e sem anúncios
    OK