Cifra Club

Até quando esperar

Plebe Rude

Cifra: Principal (violão e guitarra)
tom: C
[Intro] D5  G5  C5  G5

E|---------------------------------------------------|
B|---------------------------------------------------|
G|---------------------------------------------------|
D|---------------------------------------------------|
A|-0----2--3/7--5--0--3--2--0------------------------|
E|-----------------------------0---------------------|

 D9
Não é nossa culpa
    F        G          D9
Nascemos já com uma bênção
D9
 Mas isso não é desculpa
   F         G    D9
Pela má distribuição

     Am                        G
Com tanta riqueza por aí, onde é que está
   F         D9
Cadê sua fração
     Am                        G
Com tanta riqueza por aí, onde é que está
   F         D
Cadê sua fração

      F        G   D5
Até quando esperar
D9
  E ca-dê a es-mola
     F         G         D9
Que nós damos sem  perceber
D9
  Que aquele abençoado
   F         G      D9
Poderia ter sido você

     Am                        G
Com tanta riqueza por aí, onde é que está
   F         D
Cadê sua fração
     Am                        G
Com tanta riqueza por aí, onde é que está
   F         D9
Cadê sua fração

      F       G           F      G
Até quando esperar a plebe ajoelhar
     F        G       D9
Esperando a ajuda de Deus
     F       G            F      G
Até quando esperar a plebe ajoelhar
     F        G       D9
Esperando a ajuda de Deus

( D9  C  Bm  C )
( D9  C  Bm  C )

 D9
Posso
            C
Vigiar teu carro
             Bm
Te pedir trocados
                 C
Engraxar seus sapatos

 D9
Posso
            C
Vigiar teu carro
             Bm
Te pedir trocados
                 C
Engraxar seus sapatos

D9
  Sei, Não é nossa culpa
    F        G          D9
Nascemos já com uma benção
D9
  Mas isso não é desculpa
   F         G    D9
Pela má distribuição

[Solo] Am  G  F  D9

E|----------------------------------------------------|
B|-------------------12-12b13-12b13r12-8-/13-13-12-12-|
G|---------------------------------------/14-14-12-12-|
D|------------5-7~------------------------------------|
A|-------5-7-8----------------------------------------|
E|-5-7-8----------------------------------------------|

E|----------------------------------------------------|
B|-10-10-8-5-10---------------------------------------|
G|-10-10-9-5-11---------------------------------------|
D|----------------------------------------------------|
A|----------------------------------------------------|
E|----------------------------------------------------|

     Am                        G
Com tanta riqueza por aí, onde é que está
   F         D9
Cadê sua fração
     Am                        G
Com tanta riqueza por aí, onde é que está
   F         D9
Cadê sua fração

      F       G           F      G
Até quando esperar a plebe ajoelhar
     F        G       D9
Esperando a ajuda de Deus
      F       G           F      G
Até quando esperar a plebe ajoelhar
     F        G         D9
Esperando a ajuda do.. divino Deus
00:00 / 00:00
Outros vídeos desta música
Repetir
Outros vídeos desta música
Composição de Gutje Wortmann / Philippe Seabra
379.014 exibições
    • ½ Tom
    • A
    • Bb
    • B
    • C
    • Db
    • D
    • Eb
    • E
    • F
    • F#
    • G
    • Ab
  • Adicionar à lista

    0 comentários

    Ver todos os comentários

    Conseguiu tocar?

    52 Tocaram 6 Ainda não

    Grave um vídeo tocando Até quando esperar e nos envie!

    00:00 / 00:00

    Cifra Club Pro

    Aproveite o Cifra Club com benefícios exclusivos e sem anúncios
    Cifra Club Pro
    Aproveite o Cifra Club com benefícios exclusivos e sem anúncios
    OK