Cifra Club

Até quando esperar

Plebe Rude

Cifra: Principal
exibições 305.696
Tom: C
[Intro]  D5  G5  C5  G5

E|---------------------------------------------------|
B|---------------------------------------------------|
G|---------------------------------------------------|
D|---------------------------------------------------|
A|-0----2--3/7--5--0--3--2--0------------------------|
D|-----------------------------0---------------------|

 D
Não é nossa culpa
    F        G          D
Nascemos já com uma bênção
D
  Mas isso não é desculpa
   F         G    D
Pela má distribuição

     Am                        G
Com tanta riqueza por aí, onde é que está
   F         D
Cadê sua fração
     Am                        G
Com tanta riqueza por aí, onde é que está
   F         D
Cadê sua fração

     F5        G5   D5
Até quando esperar

D
  E ca-dê a es-mola
     F         G         D
Que nós damos sem  perceber
D
  Que aquele abençoado
   F         G      D
Poderia ter sido você

     Am                        G
Com tanta riqueza por aí, onde é que está
   F         D
Cadê sua fração
     Am                        G
Com tanta riqueza por aí, onde é que está
   F         D
Cadê sua fração

      F       G           F      G
Até quando esperar a plebe ajoelhar
     F        G       D
Esperando a ajuda de Deus
     F       G            F      G
Até quando esperar a plebe ajoelhar
     F        G       D
Esperando a ajuda de Deus

( D  C  Bm  C )
( D  C  Bm  C )

D
Posso
            C
Vigiar teu carro
            Bm
Te pedir trocados
                 C
Engraxar seus sapatos
             D
Te pedir trocados

D
  Sei, Não é nossa culpa
    F        G          D
Nascemos já com uma bênção
D
  Mas isso não é desculpa
   F         G    D
Pela má distribuição

[Solo]  Am  G  F  D

E|----------------------------------------------------------|
B|------------------------12-12b13-12b13r12-8--/13-13-12-12-|
G|---------------------------------------------/14-14-12-12-|
D|----------------5-7HA~~-----------------------------------|
A|----------5-7-8-------------------------------------------|
E|----5-7-8-------------------------------------------------|

E|----------------------------------------------------------|
B|-10-10-8-5-10---------------------------------------------|
G|-10-10-9-5-11---------------------------------------------|
D|----------------------------------------------------------|
A|----------------------------------------------------------|
E|----------------------------------------------------------|

     Am                        G
Com tanta riqueza por aí, onde é que está
   F         D
Cadê sua fração
     Am                        G
Com tanta riqueza por aí, onde é que está
   F         D
Cadê sua fração

      F       G           F      G
Até quando esperar a plebe ajoelhar
     F        G       D
Esperando a ajuda de Deus
      F       G           F      G
Até quando esperar a plebe ajoelhar
     F        G         D
Esperando a ajuda do.. divino Deus

0 comentários

    mostrar mais comentários

    Conseguiu tocar?

    30tocaram0ainda não

    Grave um vídeo tocando Até quando esperar e mande pra gente!

    00:00 / 00:00
    outros vídeos desta música
    repetirqualidadeautomática
    Outro vídeos desta música
      00:00 / 00:00
      automática
      OK