Cifra Club

Aprenda

No, It Isn't

Plus-44

Cifra: Versão 5 (violão e guitarra)
Quer fazer aulas de música com a gente? Responda essas perguntas
e nos ajude nesse projeto! →
tom: A
o Shanne usa uma pestaneia na segunda casa pra tok essa músik
ai fik assim:

Intro e verso: (fazer até chegar no refrão)
e|-------------------------------------------------------------------------
b|-------------------------------------------------------------------------
g|-------------------------------------------------------------------------
d|-11-11-11-11-11-11-11-11-11-11-11-11-11-11-11-11-11-11-11-11-11-11-11-11-
a|-12-12-12-12-12-12-12-12-12-12-12-12-12-12-12-12-12-12-12-12-12-12-12-12-
E|-2--2--2--2--2--2--2--2--2--2--2--2--10-10-10-10-10-10-10-10-10-10-10-10-

e|-------------------------------------------------------------
b|-------------------------------------------------------------
g|-------------------------------------------------------------
d|-7-7-7-7-7-7-7-7-7-7-7-7-14-14-14-14-14-14-14-14-14-14-14-14-
a|-7-7-7-7-7-7-7-7-7-7-7-7-14-14-14-14-14-14-14-14-14-14-14-14-
E|-5-5-5-5-5-5-5-5-5-5-5-5-12-12-12-12-12-12-12-12-12-12-12-12-

refrão sem distorção:

e|-------------------------------------------------------------
b|-------------------------------------------------------------
g|-6-6-6-6-6-6-6-6-7-7-7-7-7-7-7-7-6-6-6-6-6-6-7-7-7-7-7-7-7-7-
d|-4-4-4-4-4-4-4-7-7-7-7-7-7-7-7-7-4-4-6-6-6-6-7-7-7-7-7-7-7-7-
a|-2-2-2-2-2-2-2-4-5-5-5-5-5-5-5-5-4-4-7-7-7-7-5-5-5-5-5-5-5-5-
E|---------------------------------2-2-------------------------

e|---------------------------------------------------------------------
b|---------------------------------------------------------------------
g|-6-6-6-6-6-6-6-6-7-7-7-7-7-7-7-7-6-6-6-6-6-6-7-7-7-7-7-7-6-6-6-6-6-6-
d|-4-4-4-4-4-4-4-7-7-7-7-7-7-7-7-7-4-4-6-6-6-6-7-7-7-7-7-7-7-7-7-7-7-7-
a|-2-2-2-2-2-2-2-4-5-5-5-5-5-5-5-5-4-4-7-7-7-7-5-5-5-5-5-5-4-4-4-4-4-4-
E|---------------------------------2-2---------------------------------



Tocar verso de novo até chegar no refrão e depois tocar o refrão de novo

Bridge:(tocar enquanto é feito o solinho de piano)
                                                    4x
e|----------------------------------------------------|
b|----------------------------------------------------|
g|.-------------------------6-6-6-6-6-6-7-7-7-7-7-7--.|
d|.-7-7-7-7-7-7-7-7-7-7-7-7-7-7-7-7-7-7-7-7-7-7-7-7--.|
a|--7-7-7-7-7-7-7-7-7-7-7-7-4-4-4-4-4-4-5-5-5-5-5-5---|
E|--5-5-5-5-5-5-5-5-5-5-5-5---------------------------|

Solinho de piano:

e|------------------------------------|---------------------------------
b|-----------------------5------------|----------------------10---------
g|.-6-7-6~-6-7-7-6~-6-7-6---7-6-7----.|-6-7-6~-6-7-7-6~-6-7-6----9-7-6~-
d|.-------------------------------7~-.|---------------------------------
a|------------------------------------|---------------------------------
E|------------------------------------|---------------------------------

e|--------------------------------
b|-----------------------5--------
g|.-6-7-6~-6-7-7-6~-6-7-6---7-6-7-
d|.-------------------------------
a|--------------------------------
E|--------------------------------

Refrão com distorção:

e|---------------------------------------------------------------------------|
b|---------------------------------------------------------------------------|
g|-4~-4-7-7-7-7-7-7-7-7-7-7-7-7-11-11-11-9-9-9-9-9-9-7-7-7-7-7-7-7-7-7-7-7-7-|
d|-4~-6-7-7-7-7-7-7-7-7-7-7-7-7-11-11-11-9-9-9-9-9-9-7-7-7-7-7-7-7-7-7-7-7-7-|
a|-2~-6-5-5-5-5-5-5-5-5-5-5-5-5-9--9--9--7-7-7-7-7-7-5-5-5-5-5-5-5-5-5-5-5-5-|
E|---------------------------------------------------------------------------|

e|------------------------------------------------------------------------------------------------|
b|------------------------------------------------------------------------------------------------|
g|-4-4-4-4-4-4-4-4-4-4-4-4-6-7-7-7-7-7-7-7-7-7-7-7-7-11-11-11-9-9-9-9-9-9-7-7-7-7-7-7-6-6-6-6-6-6-|
d|-4-4-4-4-4-4-4-4-4-4-4-4-6-7-7-7-7-7-7-7-7-7-7-7-7-11-11-11-9-9-9-9-9-9-7-7-7-7-7-7-6-6-6-6-6-6-|
a|-2-2-2-2-2-2-2-2-2-2-2-2-4-5-5-5-5-5-5-5-5-5-5-5-5-9--9--9--7-7-7-7-7-7-5-5-5-5-5-5-4-4-4-4-4-4-|
E|------------------------------------------------------------------------------------------------|


depois do refrão tocar isso:

e|-----------------------------------------------------------------
b|-----------------------------------------------------------------
g|-------11-11-11-9-9-9-11-7-7-7-7-7-7-9-9-11-11-9-9-7-6-6-6-6-6-6-
d|-4-4-4-----------------------------------------------------------
a|-4-4-4-9--9--9--7-7-7-9--5-5-5-5-5-5-7-7-9--9--7-7-5-4-4-4-4-4-4-
E|-2-2-2-----------------------------------------------------------

e|------------------------------------------------
b|------------------------------------------------
g|--11-11-11-9-9-9-11-7-7-7-7-7-7-6-6-6-7-7-9-11~-
d|------------------------------------------------
a|--9--9--9--7-7-7-9--5-5-5-5-5-5-4-4-4-5-5-7-9-~-
E|------------------------------------------------

e|-------------------------------------------------------------------------
b|-------------------------------------------------------------------------
g|-7-7-7-7-7-7-7-7-7-7-7-7-------------------------9-9-9-9-9-9-9-9-9-9-9-9-
d|-7-7-7-7-7-7-7-7-7-7-7-7-7-7-7-7-7-7-7-7-7-7-7-7-9-9-9-9-9-9-9-9-9-9-9-9-
a|-5-5-5-5-5-5-5-5-5-5-5-5-7-7-7-7-7-7-7-7-7-7-7-7-7-7-7-7-7-7-7-7-7-7-7-7-
E|-------------------------5-5-5-5-5-5-5-5-5-5-5-5-------------------------

e|-------------------------------------------------------------------------------------
b|-------------------------------------------------------------------------------------
g|-11-11-11-11-11-11-11-11-11-11-11-11-7-7-7-7-7-7-7-7-7-7-7-7-------------------------
d|-11-11-11-11-11-11-11-11-11-11-11-11-7-7-7-7-7-7-7-7-7-7-7-7-7-7-7-7-7-7-7-7-7-7-7-7-
a|-9--9--9--9--9--9--9--9--9--9--9--9--5-5-5-5-5-5-5-5-5-5-5-5-7-7-7-7-7-7-7-7-7-7-7-7-
E|-------------------------------------------------------------5-5-5-5-5-5-5-5-5-5-5-5-

e|---------------------------------------------------------------------
b|---------------------------------------------------------------------
g|-9-9-9-9-9-9-9-9-9-9-9-9---------------------7-7-7-7-7-7-7-7-7-7-----
d|-9-9-9-9-9-9-9-9-9-9-9-9-4-4-4-4-4-4-4-4-4-4-7-7-7-7-7-7-7-7-7-7-7~~-
a|-7-7-7-7-7-7-7-7-7-7-7-7-4-4-4-4-4-4-4-4-4-4-5-5-5-5-5-5-5-5-5-5-7~~-
E|-------------------------2-2-2-2-2-2-2-2-2-2---------------------5~~-
Composição de Mark Hoppus
Colaboração e revisão:
  • Rodrigo Silva
2.856 exibições
    • ½ Tom
    • A
    • Bb
    • B
    • C
    • Db
    • D
    • Eb
    • E
    • F
    • F#
    • G
    • Ab
  • Adicionar à lista

    0 comentários

    Ver todos os comentários

    Conseguiu tocar?

    0 Tocaram 0 Ainda não

    Grave um vídeo tocando No, It Isn't e nos envie!

    00:00 / 00:00
    Outros vídeos desta música
    Repetir Qualidade Automático
    Outros vídeos desta música
    00:00 / 00:00
    Automático

    Cifra Club Pro

    Aproveite o Cifra Club com benefícios exclusivos e sem anúncios
    Cifra Club Pro
    Aproveite o Cifra Club com benefícios exclusivos e sem anúncios
    OK