Cifra Club

Wild World

Powerman 5000

Cifra: Principal (violão e guitarra)
Selo Cifra Club: esta cifra foi revisada para atender aos critérios oficiais da nossa Equipe de Qualidade.
tom: Bm
Intro
E|-------------| ----------     |      -------------    ------------|
B|-------------| ----------     |      -------------    ------------|
G|----7-------| ---7-----      |      -----7-------    --7---------|
D|-------0----| x4   ------5-- X4   |  x3  --------9---- x4 ------7-----|  x4
A|-------------| ----------     |      -------------    ------------|
E|-------------| ----------     |      -------------    ------------|


Verse  Guitar 1
E|------------------------------------------------------------------|
B|------------------------------------------------------------------|
G|---7--------------------------------------------------------------|
D|---7-----5--------9------------------| Strum Patern is 8, 8, 16-|
A|---5-----5--------9-----------------------------------------------|
E|----------3--------7----------------------------------------------|

Verse  Guitar 2
E|-----------| ----------------------------------------------------|
B|---10------| -------12----------12---------12---------12------12-|
G|--------11-| x8  ----------11----11----11--------11----11----11-11---|
D|-----------| ----------------------------------------------------|
A|-----------| ----------------------------------------------------|
E|-----------| ----------------------------------------------------|

Bridge 1

E|----------------------------------------|
B|----------------------------------------|
G|-----------7----------------------------|
D|--5-------7------5--------7-------------| Strum Patern 8,8,8,8
A|--5-------5------5--------7-------------|
E|--3---------------3--------5------------|


Chorus

E|-------------------------------------------|
B|-------------------------------------------|
G|--77---------------------------------------|
D|--77---77---55-----5----5---6--7-----------| Strum patern as writen, hit
A|--55---77---55-----5----5---6--7-----------| last one 16 times
E|--------55---33--0--3-0-3---4--5-----------|

Bridge 2

E|----------|
B|----------|
G|-------7--|
D|--5----7--| x 3  Strum patern 8,8
A|--5----5--|
E|--3-------|

E|---------------------|
B|---------------------|
G|----------12-11-7-9--|
D|--9------------------| Strum Patern 8, 2, 2, 2, 2
A|--9-------10--9-5-7--|
E|--7------------------|


Solo

E|------------------| ------|
B|------------------| --7---|
G|--4----9----2---| strum patern 8,8, 4   --9b--| Bend 9 up and hold, do not
D|------------------| ------|      bend 7, strike 8 times
A|------------------| ------|
E|------------------| ------|

E|--------------------------------------|
B|--------------------------------------|
G|--9b--7-------7-----------------------|
D|-----------9------7--9-9-------9-9-9--| Bend 9 up and down.
A|-----------------------------7--------|
E|--------------------------------------|

E|-------------| ---------------|
B|-------------| ---------------|
G|---7--9---11-| -----7--6--7---|
D|-------------| x2  ---------------|
A|-5----7---9--| ---5----4--5---|
E|-------------| ---------------|


E|-----------------------|
B|-----------------------|
G|---9---------------12b-|
D|-----------------------| Strum 8, bend 12 and hit in the 4 times area.
A|---7-------------------|
E|-----------------------|
Outros vídeos desta música
    14 exibições
      • ½ Tom
      • Am
      • Bbm
      • Bm
      • Cm
      • C#m
      • Dm
      • Ebm
      • Em
      • Fm
      • F#m
      • Gm
      • G#m
    • Adicionar à lista

    Afinação da cifra

    Afinador online

      0 comentários

      Ver todos os comentários

      Entre para o Cifra Club PRO

      Tenha acesso a benefícios exclusivos no App e no Site

      • Chega de anúncios

      • Badges exclusivas

      • Mais recursos no app do Afinador

      • Atendimento Prioritário

      • Aumente seu limite de lista

      • Ajude a produzir mais conteúdo

      Cifra Club Pro

      Aproveite o Cifra Club com benefícios exclusivos e sem anúncios
      Cifra Club Pro
      Aproveite o Cifra Club com benefícios exclusivos e sem anúncios
      Ops (: Contenido disponible sólo en portugués.
      OK