Cifra Club

Confiança

Projeto Sola

Cifra: Principal (violão e guitarra)
Selo Cifra Club: esta cifra foi revisada para atender aos critérios oficiais da nossa Equipe de Qualidade.
tom: G
[Intro] G  Em  C  G
        G  Em  C  G

[Tab - Intro]

    G
E|--------------10----10----------------------------|
B|-12---12---12----12----12---12--------------------|
G|----0----0----------------0-----------------------|
D|--------------------------------------------------|
A|-10--------10-10------------10--------------------|
E|--------------------------------------------------|

    Em
E|--------------10----10----------------------------|
B|-12---12---12----12----12---12--------------------|
G|----0----0----------------0-----------------------|
D|--------------------------------------------------|
A|--------------------------------------------------|
E|-12--------12-12------------12--------------------|

    C
E|--------------10----10----------------------------|
B|-12---12---12----12----12---12--------------------|
G|----0----0----------------0-----------------------|
D|-10--------10-10------------12--------------------|
A|--------------------------------------------------|
E|--------------------------------------------------|

    G
E|--------------10----10----------------------------|
B|-12---12---12----12----12---12--------------------|
G|----0----0----------------0-----------------------|
D|--------------------------------------------------|
A|-10--------10-10------------10--------------------|
E|--------------------------------------------------|

G
Pai, Deus poderoso
    Em
Tem compaixão de mim
    C                            G
Preciso da Tua graça abundante aqui
G
Quebra o meu coração
  Em
E salva-me de mim
 C                     G
Faz-me bem aventurado em ti

G
Pai, Deus de justiça
  Em
Misericórdia e amor
    C
Confesso que me afastei, me esqueci
  G
 De ti
G
Eu não sou mais que os outros
     Em
Me ensina a ver quem sou
 C                          G
Faz-me doar ao invés de possuir

    G/B        C
Esvazia o meu ego
            D   D7
Enche-me de ti

Remover anúncio
  G         D/F#
Ajuda-me a confiar
      Em                 C
Mesmo quando a confiança me faltar
  G        D/F#
Ajuda-me a enxergar
      Em                    C
Mesmo quando o meu olhar falhar
  G
Aah

( G  D/F#  Em )
( D  C  D )

G
Pai, Deus poderoso
    Em
Tem compaixão de mim
    C                            G
Preciso da Tua graça abundante aqui
G
Quebra o meu coração
  Em
E salva-me de mim
 C                     G
Faz-me bem aventurado em ti

G
Pai, Deus de justiça
  Em
Misericórdia e amor
    C
Confesso que me afastei, me esqueci
  G
 De ti
G
Eu não sou mais que os outros
     Em
Me ensina a ver quem sou
 C                          G
Faz-me doar ao invés de possuir

    G/B        C
Esvazia o meu ego
            D   D7
Enche-me de ti

  G         D/F#
Ajuda-me a confiar
      Em                 C
Mesmo quando a confiança me faltar
  G        D/F#
Ajuda-me a enxergar
      Em                    C
Mesmo quando o meu olhar falhar

  G         D/F#
Ajuda-me a confiar
      Em                 C
Mesmo quando a confiança me faltar
  G        D/F#
Ajuda-me a enxergar
      Em                    C
Mesmo quando o meu olhar falhar
G
Aah
Outros vídeos desta música
122.706 exibições
    • ½ Tom
    • A
    • Bb
    • B
    • C
    • Db
    • D
    • Eb
    • E
    • F
    • F#
    • G
    • Ab
  • Adicionar à lista

Afinação da cifra

Afinador online

    0 comentários

    Ver todos os comentários

    Entre para o Cifra Club PRO

    Tenha acesso a benefícios exclusivos no App e no Site

    • Chega de anúncios

    • Mais recursos no app do Afinador

    • Atendimento Prioritário

    • Aumente seu limite de lista

    • Ajude a produzir mais conteúdo

    Cifra Club Pro

    Aproveite o Cifra Club com benefícios exclusivos e sem anúncios
    Cifra Club Pro
    Aproveite o Cifra Club com benefícios exclusivos e sem anúncios
    OK