Cifra Club

Entre Nós

Projeto Sola

Cifra: Principal (violão e guitarra)
Selo Cifra Club: esta cifra foi revisada para atender aos critérios oficiais da nossa Equipe de Qualidade.
tom: C
[Intro] Am  F  C 
        Am  F  C

E|--------5-X---------------------------------------|
B|---3/5--5-X--3--5h6h5---7s8-----------------------|
G|-2------5-X--3--5---5---8s9-----7--9--7--5--------|
D|---3/5--7-X--3--5---5---9s10----------------------|
A|-0------------------------------5--7--5--3--------|
E|--------------------------------------------------|

E|--------5-X-------------------X-------------------|
B|---3/5--5-X--3--5h6h5---------X-------------------|
G|-2------5-X--3--5---5--8s9----X-------------------|
D|---3/5--7-X--3--5---5--9s10---X-------------------|
A|-0----------------------------X-------------------|
E|------------------------------X-------------------|

[Riff]

E|---------------------------------|
B|---------------------------------|
G|---------------------------------|
D|--0-2-3-3/5-3-0-2-3-3/5-3--------|
A|---------------------------------|
E|---------------------------------|

Am      F         C        
Foi no meio do caminho
                Am
Que ouvimos sua voz 
  F        C     Am
A nos consolar 
            F      C                  Am
Não devia o Cristo enfrentar o sofrer
         F            C    
Para na glória então entrar?
Dm                        Am
Pois se toda história Ele fez
         C   
E nos revelou 
Dm                           Am
Deus que se encarnou entre a sua criação
       F       C
Para conosco estar 

         F       
Não queimava o nosso coração
   G                     Em    Am
Ao ensinar sua palavra aqui? Aqui
    F    
E à mesa ao partir o pão 
G                         Em    Am   
Nossos olhos finalmente abrir, abrir 
    F
É o mestre que ressuscitou 
    G                      
Voltou para estar entre nós

( Am  F   C  Am  F  C )

E|--------5-X---------------------------------------|
B|---3/5--5-X--3--5h6h5---7s8-----------------------|
G|-2------5-X--3--5---5---8s9-----7--9--7--5--------|
D|---3/5--7-X--3--5---5---9s10----------------------|
A|-0------------------------------5--7--5--3--------|
E|--------------------------------------------------|

E|--------5-X-------------------X-------------------|
B|---3/5--5-X--3--5h6h5---------X-------------------|
G|-2------5-X--3--5---5--8s9----X-------------------|
D|---3/5--7-X--3--5---5--9s10---X-------------------|
A|-0----------------------------X-------------------|
E|------------------------------X-------------------|

Am        F         C
Ele veio e trouxe a paz 
                   Am
Que vai alem de nós 
     F     C     
Para nos confortar
Am        F               C
 Nas suas mãos e nos seus pés 
                   Am
As marcas da missão
          F         C
Para às nações proclamar 
  
  Dm
É nEle em quem o mundo 
     Am
Redescobre então 
         C 
Seu novo fim 
Dm                  Am
Nos enviou e seu Espirito desceu
        F     C
Conosco Ele está

        F       
Não queimava o nosso coração
   G                    Em    Am
Ao ensinar sua palavra aqui? Aqui
    F    
E à mesa ao partir o pão 
G                        Em    Am   
Nossos olhos finalmente abrir, abrir 
        F
Não queimava o nosso coração
    G                   Em    Am
Ao ensinar sua palavra aqui? Aqui
    F    
E à mesa ao partir o pão 
G                        Em    Am   
Nossos olhos finalmente abrir, abrir 
    F
É o mestre que ressuscitou 
    G                      
Voltou para estar entre nós

( Am  F  C )
( Am  F  C )
Outros vídeos desta música
39.288 exibições
    • ½ Tom
    • A
    • Bb
    • B
    • C
    • Db
    • D
    • Eb
    • E
    • F
    • F#
    • G
    • Ab
  • Adicionar à lista

Afinação da cifra

Afinador online

    0 comentários

    Ver todos os comentários

    Entre para o Cifra Club PRO

    Tenha acesso a benefícios exclusivos no App e no Site

    • Chega de anúncios

    • Mais recursos no app do Afinador

    • Atendimento Prioritário

    • Aumente seu limite de lista

    • Ajude a produzir mais conteúdo

    Cifra Club Pro

    Aproveite o Cifra Club com benefícios exclusivos e sem anúncios
    Cifra Club Pro
    Aproveite o Cifra Club com benefícios exclusivos e sem anúncios
    OK