Cifra Club

Glorificar

Projeto Sola

Cifra: Principal (violão e guitarra)
Selo Cifra Club: esta cifra foi revisada para atender aos critérios oficiais da nossa Equipe de Qualidade.
tom: Bb
[Intro] Bb

[Tab - Intro]

Parte 1 de 2
E|----------------------------------------------------|
B|-11-11-11-11-11-11-11-11-11-11-11-11----------------|
G|-10-10-10--8--8--8--7--7--7--8--8--8----------------|
D|----------------------------------------------------|
A|----------------------------------------------------|
E|----------------------------------------------------|

Parte 2 de 2
E|----------------------------------------------------|
B|-11-11-11-11-11-11-11-11-11-------------------------|
G|-10-10-10--8--8--8--7--7--7-------------------------|
D|----------------------------------------------------|
A|----------------------------------------------------|
E|----------------------------------------------------|

   Bb
Em cada canto deste mundo
                       Eb
Cada passo a ecoar seu amor

A sua redenção
Bb
Sempre a mesma bandeira

Que não é sobre nós
       Eb        F     Eb/G     Ab
Mas é Cristo, a luz, Senhor e Rei

  Bb
O grande Eu Sou, com Sua voz
    Eb
Nos chama a existir, com Ele caminhar
   Bb
Servir e amar a Igreja
      Eb
O Seu santo nome
                           Bb
E até o fim, sempre glorificar

Bb
Um tesouro em vasos frágeis
                         Eb
Sua luz brilhou na escuridão

Em nossos corações
Bb
Somos servos desse amor

Mostrar o Seu poder
       Eb   F   Eb/G  Ab
Graça que é apesar de nós

  Bb
O grande Eu Sou, com Sua voz
    Eb
Nos chama a existir, com Ele caminhar
    Bb
Servir e amar a Igreja
  Eb
O Seu santo nome

E até o fim (Sempre glorificar)

  Bb
O grande Eu Sou, com Sua voz
    Eb
Nos chama a existir, com Ele caminhar
    Bb
Servir e amar a Igreja
  Eb
O Seu santo nome
                           Bb
E até o fim, sempre glorificar

[Interlúdio] Bb  Eb  Gm  Eb

  (Bb)
O grande Eu Sou, com Sua voz
    (Eb)
Nos chama a existir, com Ele caminhar
    Bb            Gm
Servir e amar a Igreja
  Eb
O Seu santo nome
                           Bb
E até o fim, sempre glorificar


Db9
 Em todo lugar
Ab
 Em cada expressão
Eb        Bb
  Glorificar
Db9              Ab
  Seja aqui ou além, e até o final
F     Gm   Ab F/A
  Glorificar

[Final]
Bb
  Ooooh
Ab/Bb
  Ooooh
Eb/Bb       Bb
  Glorificar
Bb
  Ooooh
Ab/Bb
  Ooooh
Eb/Bb       Bb
  Glorificar

Bb
  Ooooh
Ab/Bb
  Ooooh
Eb/Bb       Bb
  Glorificar
Bb
  Ooooh
Ab/Bb
  Ooooh
Eb/Bb  Eb  Dm Cm  Bb
  Glo__ri__fi____car
Outros vídeos desta música
42.754 exibições
    • ½ Tom
    • A
    • Bb
    • B
    • C
    • Db
    • D
    • Eb
    • E
    • F
    • F#
    • G
    • Ab
  • Adicionar à lista

Afinação da cifra

Afinador online

    0 comentários

    Ver todos os comentários

    Entre para o Cifra Club PRO

    Tenha acesso a benefícios exclusivos no App e no Site

    • Chega de anúncios

    • Mais recursos no app do Afinador

    • Atendimento Prioritário

    • Aumente seu limite de lista

    • Ajude a produzir mais conteúdo

    Cifra Club Pro

    Aproveite o Cifra Club com benefícios exclusivos e sem anúncios
    Cifra Club Pro
    Aproveite o Cifra Club com benefícios exclusivos e sem anúncios
    OK