Cifra Club

Chuva de Novembro

Projota

Cifra: Principal
exibições 421.357
Tom: G
[Intro] C9  D9  Em  G

E|----------------------------------------------------|
B|------3----------5-------------8p7------------------|
G|------------------4-----------------7----7h9p7------|
D|--------------------------------------9-------------|
A|-2-3------3-3/5-------------------------------------|
E|--------------------0~------------------------------|

E|---------------------------10-----------------------|
B|-----3---------5-----------8------------------------|
G|----------------------------------------------------|
D|----------------------------------------------------|
A|-2-3------3-3/5-------------------------------------|
E|----------------0-----------------------------------|

 C9                           D9             Em
Sozinho posso te ver melhor quando se vai o Sol
                       G
Procuro o fio do seu cabelo no lençol
 C9                         D9            Em
Baixei aquele filme que cê disse que era bom
                                G
E vi que nada é tão bom quando cê não tá aqui

C9                        D9                 Em
Um dia sem você é triste, uma semana é maldade
                           G
Um mês não existe, dou meus pulos, atravesso a cidade
 C9              D9
Junto dinheiro pra financiar a viagem
     Em                        G
Uma bolacha, um salgadinho, dois refri e a passagem
 C9              D9
Já era, já fui, me espera amor
                    Em                         G
Vou atrasar mais dez minutos, parar pra te comprar uma flor
C9                                   D9
E to pronto, na melhor roupa que eu tenho
                 Em                 G
Uma rosa na mão esquerda, na outra mão um cartão com desenho

 C9                         D9
Correndo pra rodoviária, o buso sai às 9
  Em                                    G
Desculpa o cartão molhado, é quem em novembro sempre chove à tarde.
C9                 D9                     Em
E hoje a chuva ta bolada, ja me sentei, fiz minha oração
    G
Se Deus quiser nem pega nada, vai!

E|----------------------------------------------------|
B|-------3---------5-------------8p7------------------|
G|------------------4-----------------7----7h9p7------|
D|--------------------------------------9-------------|
A|-0-2/3----3-3/5-------------------------------------|
E|--------------------0~------------------------------|

E|---------------------------10-----------------------|
B|-----3---------5-----------8------------------------|
G|----------------------------------------------------|
D|----------------------------------------------------|
A|-2/3---3-3/5----------------------------------------|
E|----------------0-----------------------------------|


 C9                     D9
To indo, sentado, vendo as montanhas
                      Em                          G
Lembrando que quanto mais você me perde, mais vezes você me ganha
C9                        D9                       Em
E aquela briga ontem foi foda, eu não queria te dizer
                       G
Que eu não queria ter você
                    C9                     D9
Mas eu queria que você soubesse que eu me importo
                          Em                     G
E que eu sinto que essa chuva é o reflexo do estado do meu corpo.
C9                     D9
E foi pensando nisso que me joguei pra cá
            Em                                 G
Pra ver se quando eu te encontrar eu faço essa chuva parar

 C9                   D9
Será que isso é possivel?
                        Em                            G
Eu sonhador demais, na intranha dor demais e essa estranha dor é mais do que saudade
C9                   D9
É como uma necessidade
 Em                            G
De poder ter a certeza de que não era verdade

C9                          D9
O que você disse por telefone
          Em                           G
Que tava na hora de eu te provar que podia ser seu homem
  C9                               D9
Que o menino que nem pode sustentar um lar
 Em                        G
Nunca seria bom o suficiente pra tu casar

 C9                                       D9
Foi pensando nisso que eu entrei nesse busão
 Em                           G
Mas, talvez eu seja só um menino com uma rosa na mão
C9                   D9
E eu te ligo no celular
 Em                                         G
Te avisando que eu to indo e te pedindo pra ir lá pra me esperar
 C9                               D9
Mas você que nunca disse que me ama
 Em                                 G
Mais uma vez desliga sem dizer, se arruma e vai pra cama
 C9                            D9
Tudo bem, dorme bem amor, te amo!
  Em                           G
Quando acordar passa perfume que o seu homem tá chegando, vai!

Me espera tá!
E|----------------------------------------------------|
B|-------3---------5-------------8p7------------------|
G|------------------4-----------------7----7h9p7------|
D|--------------------------------------9-------------|
A|-0-2/3----3-3/5-------------------------------------|
E|--------------------0~------------------------------|

Me espera tá!
E|---------------------------10-----------------------|
B|-----3---------5-----------8------------------------|
G|----------------------------------------------------|
D|----------------------------------------------------|
A|-2/3---3-3/5----------------------------------------|
E|----------------0-----------------------------------|

C9                           D9
A cada segundo a chuva aumenta
              Em                          G
Nessa poltrona a cada minuto que eu durmo eu acordo quarenta
 C9                                D9
Janela embaçada, tampando minha visão
Em                        G
Eu fecho os olhos e praticamente sinto sua respiração,
C9                       D9
É como o silencio do meu quarto sem você
 Em                          G
Culpa dessa distancia que me impede de te ver
 C9                              D9
Me impede de provar que eu te mereço
 Em                                 G
De mostrar que o dinheiro tá pouco mas que a alegria não tem preço

C9                          D9
E eu pensando em você nesse momento
Em                        G
Aproveito o tempo pra treinar o pedido de casamento
 C9                       D9
Depois da briga, acordei cedo
 Em                              G
Peguei toda a economia e comprei a aliança em segredo
 C9                               D9
Juntei moeda por moeda pra poder tá aqui

  Em                          G
Pra mostrar que um menino pode te fazer sorrir
 C9                                D9
Te sentir mais uma vez, sentir por uma vez
  Em                            G
Que achar que eu sou teu sonho não é uma insensatez
 C9                                     D9
Mas perai, eu ouço um barulho, que que ta pegando?
Em                               G
A aliança caiu do meu bolso, tudo balançando (porra mano!)
  C9                        D9
Quem ta gritando? Porque ta girando? Alguém sabe?
 Em                     G
Tento chamar seu nome, mas minha boca nem abre

 C9                  D9
Barulho de chuva, pneu, escuridão
 Em                   G
Lembrar seu rosto se tornou a ultima opção
C9                      D9
Agarro forte a rosa na lama
 Em                   G
Menino ou homem você me deixou partir sem dizer que me ama!
C9                                          D9
Eu não pensei que fosse pra tão longe essa viagem
                    Em
Toca o celular, é você me mandando mensagem
C9                                D9
E eu preso nas ferragens, sem me mexer
 Em                        G
Sei que você me escreveu, mas fecho os olhos sem saber o que

[Final] C9  D9  Em  G 

E|----------------------------------------------------|
B|-------3---------5-------------8p7------------------|
G|------------------4-----------------7----7h9p7------|
D|--------------------------------------9-------------|
A|-0-2/3----3-3/5-------------------------------------|
E|--------------------0~------------------------------|

E|---------------------------10-----------------------|
B|-----3---------5-----------8------------------------|
G|----------------------------------------------------|
D|----------------------------------------------------|
A|-2/3---3-3/5----------------------------------------|
E|----------------0-----------------------------------|

0 comentários

    mostrar mais comentários

    Conseguiu tocar?

    70tocaram6ainda não

    Grave um vídeo tocando Chuva de Novembro e mande pra gente!

    00:00 / 00:00
    outros vídeos desta música
    repetirqualidadeautomática
    Outro vídeos desta música
      00:00 / 00:00
      automática
      OK