Cifra Club

Sr. Presidente

Projota

Cifra: Principal (violão e guitarra)
Tom: Em
[Intro] C  Bm  Am7  Em
        C  Bm  Am7  Em  Am7  Em
      
   C       Bm       Am7     Em
E|---7---7---5---5--5-3-------------------------------|
B|---------7---7--------3-3/5~------------------------|
G|-9---9----------------------------------------------|
D|----------------------------------------------------|
A|----------------------------------------------------|
E|----------------------------------------------------|

   C       Bm       Am7     Em    Am7      Em
E|---7---7---5---5--5-3-----------5-3-----------------|
B|---------7---7--------3-3/5~---------3-3/5----------|
G|-9---9----------------------------------------------|
D|----------------------------------------------------|
A|----------------------------------------------------|
E|----------------------------------------------------|

[Primeira Parte]

                     C              Bm
A gente paga pra nascer paga pra morar
             Am7                     Em
Paga pra perder a gente paga pra ganhar
            C               Bm
Paga pra viver paga pra sonhar
                     Am7                         Em
A gente paga pra morrer e o filho paga pra enterrar
                 C                          Bm
Vontade a gente tem mas não tem onde trabalhar
                 Am7                        Em
Justiça a gente tem mas só pra quem pode pagar
                 C                            Bm
Coragem a gente tem mas não tem forças pra lutar
                      Am7                      Em
Então a gente sai de casa sem saber se vai voltar

[Segunda Parte]

            C                         Bm
E aí vem vocês pegar o que é nosso direito
                   Am7                        Em
Crime não é mais crime quando é um crime bem feito
               C                        Bm
Viver dessa maneira é algo que eu não aceito
                       Am7                 Em
Enquanto isso o povo chora sem ter onde morar
                 C                    Bm
Mas existe uma chama acesa dentro do peito
                  Am7                     Em
Porque já não dá mais pra se viver desse jeito
                    C                        Bm
Quando o povo explodir vai ser só causa e efeito
                Am7                             Em
Efeito que abastece meu pulmão e me dá forças pra cantar 

[Refrão]

C          Bm                   Am7   
 Sr. Presidente, esse país tá doente
                     Em
Nosso povo já não aguenta mais
C          Bm                  Am7   
 Sr. Presidente, como você se sente 
                   Em
Ao ver a fila dos nossos hospitais?
C          Bm                      Am7   
 Sr. Presidente, até queria que a gente
                       Em          C  Bm
Se entendesse mas não sei como faz
                                  Am7                   Em
Porque essa noite se foi mais um menino ali na rua de trás 

( C  Bm  Am7  Em )
( C  Bm  Am7  Em )

   C       Bm       Am7     Em
E|---7---7---5---5--5-3-------------------------------|
B|---------7---7--------3-3/5~------------------------|
G|-9---9----------------------------------------------|
D|----------------------------------------------------|
A|----------------------------------------------------|
E|----------------------------------------------------|

   C       Bm       Am7     Em
E|---7---7---5---5--5-3-------------------------------|
B|---------7---7--------3-3/5~------------------------|
G|-9---9----------------------------------------------|
D|----------------------------------------------------|
A|----------------------------------------------------|
E|----------------------------------------------------|

[Terceira Parte] 
                       C                        Bm
Esse é o meu país tão lindo que não tem furacão    
                           Am7                    Em
De um povo que ainda segue órfão do seu pai da nação 
                      C                  Bm
De uma pátria mãe solteira da sua população 
                     Am7                     Em
Onde o salário vale menos do que o preço do pão
                    C                    Bm
Dorme um menino de rua descansando seus pés 
              Am7                 Em
Viajando pra lua num papelote de 10
                        C                  Bm
Oh pátria amada e mal amada por filhos infiéis 
                 Am7                       Em
Digas quem te comandas que eu te digo quem és 

[Segunda Parte]
 
            C                         Bm
E aí vem vocês pegar o que é nosso direito
                   Am7                        Em
Crime não é mais crime quando é um crime bem feito
               C                        Bm
Viver dessa maneira é algo que eu não aceito
                       Am7                 Em
Enquanto isso o povo chora sem ter onde morar
                 C                    Bm
Mas existe uma chama acesa dentro do peito
                  Am7                     Em
Porque já não dá mais pra se viver desse jeito
                    C                        Bm
Quando o povo explodir vai ser só causa e efeito
                Am7                             Em
Efeito que abastece meu pulmão e me dá forças pra cantar 

[Refrão]

C          Bm                   Am7   
 Sr. Presidente, esse país tá doente
                     Em
Nosso povo já não aguenta mais
C          Bm                  Am7   
 Sr. Presidente, como você se sente 
                   Em
Ao ver a fila dos nossos hospitais?
C          Bm                      Am7   
 Sr. Presidente, até queria que a gente
                       Em          C  Bm
Se entendesse mas não sei como faz
                                  Am7                   Em
Porque essa noite se foi mais um menino ali na rua de trás 

[Final] C  Bm  Am7  Em
        C  Bm  Am7  Em  Am7  Em
        C  Bm  Am7  Em
      
   C       Bm       Am7     Em
E|---7---7---5---5--5-3-------------------------------|
B|---------7---7--------3-3/5~------------------------|
G|-9---9----------------------------------------------|
D|----------------------------------------------------|
A|----------------------------------------------------|
E|----------------------------------------------------|

   C       Bm       Am7     Em    Am7      Em
E|---7---7---5---5--5-3-----------5-3-----------------|
B|---------7---7--------3-3/5~---------3-3/5--3-------|
G|-9---9----------------------------------------------|
D|----------------------------------------------------|
A|----------------------------------------------------|
E|----------------------------------------------------|

   C       Bm       Am7     Em
E|---7---7---5---5--5-3-------------------------------|
B|---------7---7--------3-3/5~------------------------|
G|-9---9----------------------------------------------|
D|----------------------------------------------------|
A|----------------------------------------------------|
E|----------------------------------------------------|
exibições 2.040
Acordes para:
    Composição: Projota / Tom Leite Colaboração e revisão:
    • Getúlio Vasconcelos

    0 comentários

    mostrar mais comentários

    Conseguiu tocar?

    4 tocaram 1 ainda não

    Grave um vídeo tocando Sr. Presidente e mande pra gente!

    00:00 / 00:00
    outros vídeos desta música
    repetir qualidade Automático
    Outros vídeos desta música
    00:00 / 00:00
    Automático
    OK