Cifra Club

Blurry

Puddle Of Mudd

Cifra: Principal (violão e guitarra)
Selo Cifra Club: esta cifra foi revisada para atender aos critérios oficiais da nossa Equipe de Qualidade.
tom: A
Tirado Por Rômulo Teixeira (banda DANUTS (Sorocaba/SP)

|---------------------------------------------------------------------|
|Queria dedicar essa música a Janine minha amiga super linda! BJAUM Ja|
|---------------------------------------------------------------------|

* = Harmonica Natural
/ = Slide
a = Arpeggio


Guitar 1 - Guitarra Limpa(sem efeito)

Riff A

eb|-----------------------------------------------------------------------|
Bb|-----------------------------------------------------------------------|
Gb|-----------------------------------------------------------------------|
Db|-5----5-------5-------5--------5-7------7-------7-------7-------7------|
Ab|--3-3---3-3-3---3-3-3---3-3-3-----/5-5----5-5-5---5-5-5---5-5-5--------|
Eb|-----------------------------------------------------------------------|

Riff A (continuação)

eb|------------------------------------------------------------------|
Bb|------------------------------------------------------------------|
Gb|------------------------------------------------------------------|
Db|-9-----9-------9--------9-------9-9----9-------9-------9-------9--|
Ab|--/7-7---7-7-7----7-7-7---7-7-7----7-7---7-7-7---7-7-7---7-7-7----|
Eb|------------------------------------------------------------------|

Guitar 2 - Guitarra Limpa(sem efeito) 

Riff A

eb|--------------------------------------------------| 
Bb|-----------------5*----------------5*-------------| 
Gb|--------5*----------5*----5*----------5*----5*----| 
Db|-----5*----5*----------------5*----------------5*-| 
Ab|--3-----------3--------3--------3--------3--------| 
Eb|--------------------------------------------------| 

eb|--------------------------------------------------| 
Bb|-----------------5*----------------5*-------------| 
Gb|--------5*----------5*----5*----------5*----5*----| 
Db|-----5*----5*----------------5*----------------5*-| 
Ab|--5-----------5--------5--------5--------5--------| 
Eb|--------------------------------------------------| 

eb|--------------------------------------------5*----| 
Bb|-----------------5*----------------5*----------5*-| 
Gb|--------5*----------5*----5*----------5*----------| 
Db|-----5*----5*----------------5*-------------------| 
Ab|--7*----------7*-------7*-------7*-------7*-------| 
Eb|--------------------------------------------------|

eb|--------------------------------------------5*----| 
Bb|-----------------5*----------------5*----------5*-| 
Gb|--------5*----------5*----5*----------5*----------| 
Db|-----5*----5*----------------5*-------------------| 
Ab|--7*----------7*-------7*-------7*-------7*-------| 
Eb|--------------------------------------------------|


Guitar 3 - Distortion(c/ delay) 

Riff A

eb|-17-15----17-19----17-19----(17-15)-|
Bb|------------------------------------|
Gb|------------------------------------|
Db|------------------------------------|
Ab|------------------------------------|
Eb|------------------------------------|

Guitar 1 - Guitarra Limpa

Riff B 

eb|----------------|
Bb|----------------|
Gb|-5--7--9--9-----|
Db|-5--7--9--9-----|
Ab|-3--5--7--7-----|
Eb|----------------|

Guitar 3 - Distortion

Riff B (Quando ele canta 'you could be my...’) 

eb|-----------------------------|
Bb|-----------------------------|
Gb|---------------------------0-|
Db|-0-0--3-2--0--0-0--3-2h3-----|
Ab|-----------------------------|
Eb|-----------------------------|

Guitar 1 - Guitarra Limpa

Pre-Chorus

eb|--------------------| 
Bb|--------------------| 
Gb|-4/6/8/10/-11-11-11-| 
Db|-x-x-x-x----x--x--x-| 
Ab|-2/4/6/8/---9--9--9-| 
Eb|--------------------|

Toque Riff B

Guitar 1&3 - Distortion
Chorus 

eb|----------------|
Bb|----------------|
Gb|-/5-/7-/9-9-----|
Db|-/5-/7-/9-9-----|
Ab|-/3-/5-/7-7-----|
Eb|-/3-/5-/7-7-----|

Guitar 3 - Distortion

Interlude

eb|--------------------------------------------------| 
Bb|--------------------------------------------------| 
Gb|--10/12--12/--10/1211---12--12/------------------| 
Db|--------------------------------------------------| 
Ab|---8/10--10/---8/109----10--10/------------------| 
Eb|--------------------------------------------------|

Guitar 1 - Guitarra Limpa

Play Riff B


Guitar 3 - Distortion(c/ auto-wah)
(Guitar 1 toque Riff B apenas de fundo)

Solo

eb|---------------------------------------------------------------------------------| 
Bb|-----8-8-----------------8-8-----------------9-9---------------------------------|
Gb|-7-9-----9--9-7--9---7-9-----9--9-7--9---7-9-----9-9--7-9---9-7--9--7--9--7--7---| 
Db|---------------------------------------------------------------------------------|
Ab|---------------------------------------------------------------------------------|
Eb|---------------------------------------------------------------------------------|

Guitar 2 - Toca sozinha as outrar guitarras param de tocar

Riff B

eb|--7*------7*-5*-------------------------------------------------------------|
Bb|----7*---------5*--7*-------------------------------------------------------|
Gb|------5*---------5*-----------------------a9*-------------------------------|
Db|--------5*--------------------------------a9*-------------------------------|
Ab|------------------------------------------a7*-------------------------------|
Eb|----------------------------------------------------------------------------|
Outros vídeos desta música
    106.229 exibições
      • ½ Tom
      • A
      • Bb
      • B
      • C
      • Db
      • D
      • Eb
      • E
      • F
      • F#
      • G
      • Ab
    • Adicionar à lista

    Afinação da cifra

    Afinador online

      0 comentários

      Ver todos os comentários

      Entre para o Cifra Club PRO

      Tenha acesso a benefícios exclusivos no App e no Site

      • Chega de anúncios

      • Mais recursos no app do Afinador

      • Atendimento Prioritário

      • Aumente seu limite de lista

      • Ajude a produzir mais conteúdo

      Cifra Club Pro

      Aproveite o Cifra Club com benefícios exclusivos e sem anúncios
      Cifra Club Pro
      Aproveite o Cifra Club com benefícios exclusivos e sem anúncios
      OK