Cifra Club

Bohemian Rhapsody

Queen

Tab de baixo: Studio
exibições 548
Parte 1                                     Baixo
G|---------------------------------------------------------------|   
D|-------------------------------15\-----------------------------|   
A|-1----1----1--------3----3------------1-------3--2--1--0-------|   
E|---------------3--------------------------3---------------4--3-|   
 
G|-----------------------------------------------------|   
D|------------3--2--1--0--------------------------6/13-|   
A|-6---5--3----------------1---1-1--1-1/-6--5--3-------|   
E|-----------------------------------------------------|   

G|---------------------------------------------------------------|   
D|-------------------------------15\-----------------------------|   
A|-1----1----1--------3----3------------1-------3--2--1--0-------|   
E|---------------3--------------------------3---------------4--3-|   

G|----------------------------------------------------------|   
D|------------3--2--1--0------------------------------------|   
A|-6---5--3---------------1---1-1-1--1-1-1-1-1-1-1-1-1-1/6--|   
E|----------------------------------------------------------|   

G|-------------5---------------------------3----3---3/8-|   
D|-----------5---5-3--2--1--0------------3----3---3-----|   
A|-6---5--3--------------------1--1-1-1-----------------|   
E|------------------------------------------------------|   

G|---------------------------5---------------------------------|   
D|-------------------------5---5--3--2--1--0-------------------|   
A|-6---6-6-5--5--3---3-3----------------------4--4-3-2--1/12-0-|   
E|-------------------------------------------------------------|   

Opera:   
G|-----------------------------------|   
D|--6-6-6-6-6--6----5----5-----------|   
A|----------------------------7------|   
E|------------------------------0--5-|   

G|-------------------------------------------------------|   
D|------------------------------6--6-6-5---5-------------|   
A|--6--6-6-6--6--6-6-6--6-6-6----------------8-8-6-5-----|   
E|---------------------------------------------------8-6-|   

G|-----------------------------------------------------------------|   
D|-----------------------------------------------------------------|   
A|---6----------------------6--------------------6-----------------|   
E|-6---6----6-6-6-6-6-6---6---6--6-6-6-6-6-6---6---6--6-6-6-6-6-6--|   

G|----------------------------------------|   
D|----------------------------------4-----|   
A|------------------------------5-4-----6-|   
E|-6-6-6-6-6---6-6-6-6-6----7-5-------6---|   

G|-----------------------------------------------|   
D|-----6------------------6--6--6-----------5--5-|   
A|-6-6---6-5--------6--6-----------5-5-5-5-------|   
E|-----------8-6--6------------------------------|   

G|------------------------------------------------------------------|   
D|------------------------------------------------------------------|   
A|------------------------------------------------------------------|   
E|-6--6-6-6-6--6--6--6-6-6-6-6--6--6--6-6-6-6-6--6--6-6-6-6-6-6-6-6-|   

Final:

G|---------------------------------------------------------------|   
D|---------------------------------------------------------------|   
A|-6---------3-5-6--6--------3-----6---------3-5-6--8--------5---|   
E|----3-4-6------------3-4-6---6------3-4-6------------5-6-8---8-|   

G|---------------------------------------------------3-3-1-3-1-----6-|   
D|-------------------------------1--1-1-1----------------------3-----|   
A|-1--1-1-1--1--1-1-1--1--1-1-1------------1--1-1-1--------------4---|   
E|-------------------------------------------------------------------|   

G|-----------------------------------------------------|   
D|-------------------------------1--1-1-1--------------|   
A|-1--1-1-1--1--1-1-1--1--1-1-1------------------------|   
E|-----------------------------------------4--4-4---3--|   

G|--------------------------------------------------------|   
D|------3---------3-------------------------3---------3---|   
A|----3---3-----3---3--1--1-1-1--1--1-----3---3-----3---3-|   
E|-1---------1-------------------------1---------1--------|   

G|-----------------------------------------------------|   
D|-----------------------3-----------------3-----------|   
A|-1--1-1-1--1--1------3---3--1--1-1-----3---3--1--1-1-|   
E|------------------1-----------------1----------------|   

G|---------------------------------------------------------------|   
D|---------------------------------------------------------------|   
A|-6---------3-5-6--6--------3-----6---------3-5-6--8--------5---|   
E|----3-4-6------------3-4-6---6------3-4-6------------5-6-8---8-|   

G|--------------------------------------|   
D|------8----8-10-8-10-11---9----6----8-|   
A|-9-11---11----------------------------|   
E|--------------------------------------|   

G|------8----------7--------5--------------------------------7-----|   
D|----8---8-----------------------------------8-6-5--------7---7---|   
A|-6--------6--5-5---5--3-3---3---2--3--2--3/-------8-6--5-------5-|   
E|-----------------------------------------------------------------|   

G|---------------------------------------|   
D|-5---6--6----------------------10\6----|   
A|-----------6--6-5-3-----3--------------|   
E|---------------------3-----3---------6-|
Composição: Freddie Mercury Colaboração e revisão:
  • Reverb 2000

0 comentários

mostrar mais comentários

Conseguiu tocar?

0 tocaram 0 ainda não

Grave um vídeo tocando Bohemian Rhapsody e mande pra gente!

00:00 / 00:00
outros vídeos desta música
repetir qualidade Automático
Outros vídeos desta música
00:00 / 00:00
Automático
OK