Cifra Club

I Want It All

Queen

Cifra: Principal (violão e guitarra)
exibições 52.524
Tom: A
[Intro]

 I want it all, I want it all
 I want it all, and I want it now

[Primeira Parte]

           Bm                 G
 Adventure seeker on an empty street
               A                     Bm    A
 Just an alley creeper, light on his feet
                 Bm                          G
 A young fighter screaming, with no time for doubt
                       A                     Bm   A
 With the pain and the anger can't see a way out
                   D        G           A
 It ain't much I'm asking, I heard him say
 G           A                     G    A
 Gotta find me a future move out of my way

[Refrão]

           Bm             G              A                  Bm     A
 I want it all, I want it all, I want it all, and I want it now
           Bm             G              A                  Bm     A
 I want it all, I want it all, I want it all, and I want it now

[Segunda Parte]

                Bm                  G
 Listen all you people, come gather round,
                  A                      Bm                 A
 I gotta get me a game plan, gotta shake you to the ground,
      Bm                     G
 Just give me what I know is mine,
               A             Bm                A
 People do you hear me, just give me the sign,
               D           G          A
 It ain't much I'm asking, if you want the truth
 G             A                        G
 Here's to the future for the dreams of youth,

[Refrão]

           Bm             G              A                  Bm     A
 I want it all, I want it all, I want it all, and I want it now.
           Bm             G              A                  B      E F#
 I want it all, I want it all, I want it all, and I want it now.

[Terceira Parte]

 B
 I'm a man with a one track mind,
 E                F#
 So much to do in one life time (people do you hear me)
 B
 Not a man for compromise and
 E                     F#
 where's and why's and living lies
        G
 So I'm living it all, yes I'm living it all,
         A
 And I'm giving it all, and I'm giving it all,

[Solo] Bm  G  A  E
       Bm  G  A  G  A

E|----------7----7---------------10p7h10p7-------------------------------|
B|-10b12v-----10---10-7-10p7h10p7---------10p7-10b12v--------------------|
G|-----------------------------------------------------------------------|
D|-----------------------------------------------------------------------|
A|-----------------------------------------------------------------------|
E|-----------------------------------------------------------------------|

E|-----------------------------------------------------------------------|
B|-10-7------------------------------------------------------------------|
G|------9b10__r9--7-9-7h9p7----------------------------------------------|
D|-----------------------------------------------------------------------|
A|-----------------------------------------------------------------------|
E|-----------------------------------------------------------------------|

E|-17b19_r--17---14-----------------------17-----------------------------------|
B|------------------17b19---17v-----17b19-----19r17p15-17b19__r17p15-----------|
G|-------------------------------------------------------------------16---14vv-|
D|-----------------------------------------------------------------------------|
A|-----------------------------------------------------------------------------|
E|-----------------------------------------------------------------------------|

E|--------------------7-7-----------------------------------------|
B|-9b_10-------7-10p7-----10b12--10b12___r10p7--------------------|
G|-9b_11---b11---------------------------------10r9p7-6-7---9-----|
D|------------------------------------------------------------7---|
A|----------------------------------------------------------------|
E|----------------------------------------------------------------|

E|----------____-7------------------------------------------------|
B|-10b__12--7h10---7----------------------------------------------|
G|-------------------10-9-7------------7-___----------------------|
D|--------------------------9-7-----9----9p7----------------------|
A|----------------------------------------------------------------|
E|----------------------------------------------------------------|

E|--------------------10b12---10---7----7------7----------------------|
B|-----------------------------------10---7h10---10b12__rbrp8---------|
G|-----7------------------------------------------------------10p9p7\-|
D|-9-------9p7-9----7-------------------------------------------------|
A|--------------------------------------------------------------------|
E|--------------------------------------------------------------------|

E|------------17p14--17p14--------------------------------|
B|--------15-------14-----1417b19--17v--------------------|
G|14--16----16-------------------------------------------|
D|--------------------------------------------------------|
A|--------------------------------------------------------|
E|--------------------------------------------------------|

E|--------------------------------------------------------|
B|-17b19____r17p15----------------------------------------|
G|----------------16vv------------------------------------|
D|--------------------------------------------------------|
A|--------------------------------------------------------|
E|--------------------------------------------------------|

E|--------------------------------------------------------|
B|---15p14-------15p14-------17b19vv----------------------|
G|---------16p14-------16p14------------------------------|
D|--------------------------------------16__r14p12--------|
A|-------------------------------------------------14---14|
E|--------------------------------------------------------|

E|-----------------------------------------------------------------|
B|-----------------------------------------------------------------|
G|----------------------------------------________-----------------|
D|----------------------------------12-14b16r14p12-14p12-----------|
A|----------------------12----12h14----------------------14p12-14--|
E|-14-12p10-12p10-12/14----14--------------------------------------|

E|---------------------------------------------------------------------|
B|-15b17---15b17---r15v----7-6-5-------3p2-----3p2-----3p2-----3p2-----|
G|-------------------------------7-4-2-----4p2-----4p2-----4p2-----4p2-|
D|---------------------------------------------------------------------|
A|---------------------------------------------------------------------|
E|---------------------------------------------------------------------|

E|---------------------------------------------------------|
B|-5b7vvvr5--3-5p3-2-3p2-----------------------------------|
G|-----------------------4-x-4p2---2-----------------------|
D|-------------------------------4---4p2p0-2p0-2p0---------|
A|-------------------------------------------------2p0-2---|
E|---------------------------------------------------------|

E|------------------------------------------------------------|
B|-15____-15vv17----17b19__r17p15--------------17b19--17b19---|
G|--------------------------------16--17rbr16-----------------|
D|------------------------------------------------------------|
A|------------------------------------------------------------|
E|------------------------------------------------------------|

E|------------------------------------------------|
B|-17b19--17b19__r17p15---------------------------|
G|----------------------16_v----------------------|
D|------------------------------------------------|
A|------------------------------------------------|
E|------------------------------------------------|

E|----------------10---10----10/12---12---12------|
B|-13b15-13-13b15---b15-----------b17--b17--b17---|
G|------------------------------------------------|
D|------------------------------------------------|
A|------------------------------------------------|
E|------------------------------------------------|

E|-------------------------------------------------|
B|-19r17p15-14-15p14-------------------------------|
G|-------------------16p14-16p14----14-------------|
D|-------------------------------16----16\14-12----|
A|----------------------------------------------14-|
E|-------------------------------------------------|

E|---------------------8-7--5---5---------------------------------|
B|-------5h8p5-8b10-----------8-----------------------------------|
G|-7b9----------------------------7b9---7---5-7p5-4---------------|
D|--------------------------------------------------7-5---3---5---|
A|----------------------------------------------------------------|
E|----------------------------------------------------------------|

E|-17b19------17---14------------------------------------------|
B|----------------------18r_17_p15--17--15--14--15p14h15p14----|
G|----------------------------------------------------------16-|
D|-------------------------------------------------------------|
A|-------------------------------------------------------------|
E|-------------------------------------------------------------|

E|-----------------------------------------------|
B|-14--------------------------------------------|
G|----16-14h16p14----14--------------------------|
D|----------------16----16-15-14-13--14--12___\--|
A|---------------------------------14--14--------|
E|-----------------------------------------------|

                   D                G       A
 It ain't much I'm asking, if you want the truth
  G             A                       G     A
 Here's to the future, hear the cry of youth

[Refrão]

           Bm             G              A                  Bm     A
 I want it all, I want it all, I want it all, and I want it now
           Bm             G              A                  Bm     A
 I want it all, I want it all, I want it all, and I want it now
Acordes para:
    Composição: Queen Colaboração e revisão:
    • Alexandre Rodrigues
    • Marcos Paulo

    0 comentários

    mostrar mais comentários

    Conseguiu tocar?

    2 tocaram 0 ainda não

    Grave um vídeo tocando I Want It All e mande pra gente!

    00:00 / 00:00
    outros vídeos desta música
    repetir qualidade Automático
    Outros vídeos desta música
    00:00 / 00:00
    Automático
    OK