Cifra Club

Aprenda

Anybody Listening

Queensrÿche

Cifra: Principal (violão e guitarra)
tom: D
intro: (listen to the song for the exact timing.)
E|------------------------------------------------------------------------------|
B|--------8-8b10r8----8------8-10-----11-8\-----7-----8b10----------------------|
G|------7------------------7----------------\-----------------------------------|
D|--------------------------------------------\---------------------------------|
A|------------------------------------------------------------------------------|
E|------------------------------------------------------------------------------|

This next part comes in after the line: "I've just begun to see the light."
   the first time and after "...and there's not much I can do..." the second
   time.

 (volume swell)                    (tremolo bar dive)
                  (to coda second time after "...alone")
                         |
E|------------------------------------------------------------------------------|
B|------------------------------------------------------------------------------|
G|------7-----------------------5---3--------------------------------------------|
D|------------------------------------------------------------------------------|
A|------------------------------------------------------------------------------|
E|------------------------------------------------------------------------------|

e|------------------------------------------------------------10----------------|
B|----------------------------------------------------------------8------8-8-8--|
G|------------2h3--5----5p3--5h7--7----7h8--7-------10-10-10--------------------|
D|---5--------------------------------------------------------------------------|
A|------------------------------------------------------------------------------|
E|------------------------------------------------------------------------------|

                                            here singing begins again:
                                            "Long ago there was a dream, ..."
E|------------------------------------------------------------------------------|
B|-10--11----11-10-8--11b13----10h11--10b12-------------------------------------|
G|------------------------------------------------------------------------------|
D|------------------------------------------------------------------------------|
A|------------------------------------------------------------------------------|
E|------------------------------------------------------------------------------|



vocals:  "Is there anyone that sees what's going on?"

e|-----3--5-----3-----3--5-----3-----3--5-----3-----2----2--3--2----3--5-----3--|
B|-----3--------------4--------------4--------------3----3----------3-----------|
G|-----3--------------3--------------5--------------2----2----------3-----------|
D|------------------------------------------------------------------------------|
A|------------------------------------------------------------------------------|
E|------------------------------------------------------------------------------|

e|--1--------------------------------------------2----------3---------5-------10|
B|--3-------------4----------------4-------------3----------3---------3-------10|
G|--3-------------5----------------3-------------2----------2---------2-------11|
D|----------------5----------------5------------------------------------------12|
A|------------------------------------------------------------------------------|
E|------------------------------------------------------------------------------|

solo:
E|------------------------------------------------------------------------------|
B|----------------------------------------------------------------------8--10---|
G|----------------------------------------------------------------------7-------|
D|------7h8--10----10p8-10p8--10b12-10b12r10p8h10-7----7h8-7h8h10--8------------|
A|-10---------------------------------------------------------------------------|
E|------------------------------------------------------------------------------|

                      ________ ________
                      |   3  | |  3   |
e|---------------------------------------------------------------------13-------|
B|-10b11r10p8----------11-10-11-13-11-13-----------------11-----10b15-----------|
G|------------10---"12--------------------10----10-10-10----10------------------|
D|-----------------"12----------------------------------------------------------|
A|-----------------"12----------------------------------------------------------|
E|-----------------"10----------------------------------------------------------|

                  ________ ________ ________ ________
                  |   3  | |   3  | |  3   | |   3  |
e|-----------------------13----------------------------------------13-----13b15-|
B|-13b15r13p11-13--10h11----11p10----13-11-10-11-10-------------15----15--------|
G|-------------------------------h12----------------12-10----10-----------------|
D|------------------------------------------------------------------------------|
A|------------------------------------------------------------------------------|
E|------------------------------------------------------------------------------|

                                    ________ ________
            (hold)                  |  3   | |   3  |
e|--13b15----18----------------------18-17-18-20-18-20---22----22-22--22----22--|
B|--------------18b20----18p15-18-----------------------------------------------|
G|------------------------------------------------------------------------------|
D|------------------------------------------------------------------------------|
A|------------------------------------------------------------------------------|
E|------------------------------------------------------------------------------|

                               ________        ________
                               |  3   |        |   3  |
e|-22--22-20b22r20p18-20--18-20-18-20-18--17----17-18-17-15--17--17b18----------|
B|------------------------------------------------------------------------------|
G|------------------------------------------------------------------------------|
D|------------------------------------------------------------------------------|
A|------------------------------------------------------------------------------|
E|------------------------------------------------------------------------------|

e|-17b18(18)r17p15-----15----18-15-----------------------12---------------------|
B|------------------18b20-----------18b20----15b17----15b17--15b17-15b17r15p13--|
G|------------------------------------------------------------------------------|
D|------------------------------------------------------------------------------|
A|------------------------------------------------------------------------------|
E|------------------------------------------------------------------------------|

                                                  (feedback sustain)
e|-------------17--------------17--------------17-------------------------------|
B|-15-------15-----15-------15-----15-------15-----15---------------------------|
G|-------14--------------14--------------14-------------------------------------|
D|------------------------------------------------------------------------------|
A|------------------------------------------------------------------------------|
E|------------------------------------------------------------------------------|

coda:          "Is there anybody listening?        Is there anyone who..."
e|-2--2-----|-----------------------------------3--5----3-----3--5----3-----3--5|
B|-3--3-----|-----------------------------------3-------------4-------------4---|
G|-2--2-----|o----------------------------------3-------------3-------------5---|
D|----------|o------------------------------------------------------------------|
A|----------|-------------------------------------------------------------------|
E|----------|-------------------------------------------------------------------|

e|---3----2----2--3--2-----3--5----3--1------4------4--------3--5----3--1-------|
B|--------3----3-----------3----------3------5------3--------3----------3-------|
G|--------2----2-----------3----------3------5------5--------3----------3-------|
D|------------------------------------------------------------------------------|
A|------------------------------------------------------------------------------|
E|------------------------------------------------------------------------------|
     ____________
     |1    |2
e|-2----2---|-------------------------------------------------------------------|
B|-3----3---|----8--------8-------10-------12-----13-----15-------15-------17---|
G|-2----2--o|-10b12---10b13----12b14----14b16--16b17--17b19----17b19----19b21---|
D|---------o|-------------------------------------------------------------------|
A|----------|-------------------------------------------------------------------|
E|----------|-------------------------------------------------------------------|

                        hold the note on fret 22 while bending here:
                                                         (sustained feedback)
E|------------------------------------------------------------------------------|
B|----17----20-----------22------(22)------(22)------(22)-----------------------|
G|-19b21--------21b23----------21b23-----21b23-----21b23------------------------|
D|------------------------------------------------------------------------------|
A|------------------------------------------------------------------------------|
E|------------------------------------------------------------------------------|
Composição de DeGarmo / TATE
Colaboração e revisão:
  • Ivan Neto
2.108 exibições
    • ½ Tom
    • A
    • Bb
    • B
    • C
    • Db
    • D
    • Eb
    • E
    • F
    • F#
    • G
    • Ab
  • Adicionar à lista

    0 comentários

    Ver todos os comentários

    Conseguiu tocar?

    0 Tocaram 0 Ainda não

    Grave um vídeo tocando Anybody Listening e nos envie!

    00:00 / 00:00
    outros vídeos desta música
    repetir qualidade Automático
    Outros vídeos desta música
    00:00 / 00:00
    Automático

    Cifra Club Pro

    Aproveite o Cifra Club com benefícios exclusivos e sem anúncios
    Cifra Club Pro
    Aproveite o Cifra Club com benefícios exclusivos e sem anúncios
    OK