Cifra Club

Nm 156

Queensrÿche

Cifra: Principal (violão e guitarra)
Selo Cifra Club: esta cifra foi revisada para atender aos critérios oficiais da nossa Equipe de Qualidade.
tom: E
E|E|-----------------------------------------------------------------------------||
                      NM 156 - Queensryche (GUITAR)
                       
E|E|-----------------------------------------------------------------------------||
Tabbed by: Scotto10

Tuning: Standard

submitted Dec 12 2019
=============================================================================
                                   
Guitar 1


[Intro]

     F#m                                                         
             PM PM    PM PM                                      
     Q    E  E  E  E  E  E  H           E  E  E  E  E  E  E  E   
E||----------------------------------|--------------------------|
B||----------------------------------|--------------------------|
G||----------------------------------|--------------------------|
D||-------4--------4--------4--------|--------------------------|
A||-------4--------4--------4--------|-----4--2--0--2--0-----0--|
E||--2-------2--2-----2--2-----------|--2-----------------4-----|


  E                                                           
          PM PM    PM PM                                      
  Q    E  E  E  E  E  E  H           E  E  E  E  E  E  E  E   
E|----------------------------------|--------------------------|
B|----------------------------------|--------------------------|
G|----------------------------------|--------------------------|
D|-------4--------4--------4--------|--------------------------|
A|-------4--------4--------4--------|-----4--2--0--2--0--2--2--|
E|--0-------0--0-----0--0-----------|--2-----------------------|


  F#m                                                         
  Q    E  E  E  E  E  E  H           E  E  E  E  E  E  E  E   
E|----------------------------------|--------------------------|
B|----------------------------------|--------------------------|
G|----------------------------------|--------------------------|
D|-------4--------4--------4--------|--------------------------|
A|-------4--------4--------4--------|-----4--2--0--2--0-----0--|
E|--2-------2--2-----2--2-----------|--2-----------------4-----|


  B                                                           
          PM PM    PM PM                                      
  Q    E  E  E  E  E  E  H           E  E  E  E  E  E  E  E   
E|----------------------------------|--------------------------|
B|----------------------------------|--------------------------|
G|----------------------------------|--------------------------|
D|-------4--------4--------4--------|--------------------------|
A|--2----4--2--2--4--2--2--4--------|-----4--2--0--2--0--2--2--|
E|----------------------------------|--2-----------------------|


  F#m                                                         
  Q    E  E  E  E  E  E  H           E  E  E  E  E  E  E  E   
E|----------------------------------|--------------------------|
B|----------------------------------|--------------------------|
G|----------------------------------|--------------------------|
D|-------4--------4--------4--------|--------------------------|
A|-------4--------4--------4--------|-----4--2--0--2--0-----0--|
E|--2-------2--2-----2--2-----------|--2-----------------4-----|


  E                                                           
  Q    E  E  E  E  E  E  H           E  E  E  E  E  E  E  E   
E|----------------------------------|--------------------------|
B|----------------------------------|--------------------------|
G|----------------------------------|--------------------------|
D|-------4--------4--------4--------|--------------------------|
A|-------4--------4--------4--------|-----4--2-----2-----2--2--|
E|--0-------2--2-----2--2-----------|--2--------5-----5--------|


  F#m                                                         
  Q    E  E  E  E  E  E  H           E  E  E  E  E  E  E  E   
E|----------------------------------|--------------------------|
B|----------------------------------|--------------------------|
G|----------------------------------|--------------------------|
D|-------4--------4--------4--------|--------------------------|
A|-------4--------4--------4--------|-----4--2--0--2--0-----0--|
E|--2-------2--2-----2--2-----------|--2-----------------4-----|

  W.                  W                 
E|-------------------|-------------------|
B|-------------------|-------------------|
G|-------------------|-------------------|
D|--4----------------|--| L----------------|
A|--2----------------|--| L----------------|
E|-------------------|-------------------|


[Verse]

           Uniform printout...                          
  PM PM    PM PM    PM PM    PM PM PM  
  E  E  E  E  E  E  E  E  E  E  E  E   
E|--------------------------------------|
B|--------------------------------------|
G|--------------------------------------|
D|--------------------------------------|
A|--------4--------4--------4-----------|
E|--2--2-----2--2-----2--2-----2--2--2--|

                             PM PM    PM PM    PM PM    PM PM PM  
  E  E  E  E  E  E  E  E     E  E  E  E  E  E  E  E  E  E  E  E   
E|--------------------------|--------------------------------------|
B|--------------------------|--------------------------------------|
G|--------------------------|--------------------------------------|
D|--------------------------|--------------------------------------|
A|-----4--2--0--2--0-----0--|--------2--------2--------2-----------|
E|--2-----------------4-----|--0--0-----0--0-----0--0-----0--0--0--|

  E  E  E  E  E  E  E  E   
E|--------------------------|
B|--------------------------|
G|--------------------------|
D|--------------------------|
A|-----4--2--0--2--0--2--2--|
E|--0-----------------------|


  protect code intact...                                   
  PM                     PM    PM PM    PM PM    PM PM PM  
  E                      E  E  E  E  E  E  E  E  E  E  E   
E|----------------------------------------------------------|
B|----------------------------------------------------------|
G|----------------------------------------------------------|
D|----------------------------------------------------------|
A|----------------------------4--------4--------4-----------|
E|--2----------------------2-----2--2-----2--2-----2--2--2--|

                             PM PM    PM PM    PM PM    PM PM PM  
  E  E  E  E  E  E  E  E     E  E  E  E  E  E  E  E  E  E  E  E   
E|--------------------------|--------------------------------------|
B|--------------------------|--------------------------------------|
G|--------------------------|--------------------------------------|
D|--------------------------|--------------------------------------|
A|-----4--2--0--2--0-----0--|--------2--------2--------2-----------|
E|--2-----------------4-----|--0--0-----0--0-----0--0-----0--0--0--|

  E  E  E  E  E  E  E  E   
E|--------------------------|
B|--------------------------|
G|--------------------------|
D|--------------------------|
A|-----4--2--0--2--0--2--2--|
E|--0-----------------------|


  Eradicate surveys...                                   
  PM                   PM    PM PM    PM PM    PM PM PM  
  E                    E  E  E  E  E  E  E  E  E  E  E   
E|--------------------------------------------------------|
B|--------------------------------------------------------|
G|--------------------------------------------------------|
D|--------------------------------------------------------|
A|--------------------------4--------4--------4-----------|
E|--2--------------------2-----2--2-----2--2-----2--2--2--|

                             PM PM    PM PM    PM PM    PM PM PM  
  E  E  E  E  E  E  E  E     E  E  E  E  E  E  E  E  E  E  E  E   
E|--------------------------|--------------------------------------|
B|--------------------------|--------------------------------------|
G|--------------------------|--------------------------------------|
D|--------------------------|--------------------------------------|
A|-----4--2--0--2--0-----0--|--------2--------2--------2-----------|
E|--2-----------------4-----|--0--0-----0--0-----0--0-----0--0--0--|

  E  E  E  E  E  E  E  E   
E|--------------------------|
B|--------------------------|
G|--------------------------|
D|--------------------------|
A|-----4--2--0--2--0--2--2--|
E|--0-----------------------|


  My hands shake...                                   
  PM                PM    PM PM    PM PM    PM PM PM  
  E                 E  E  E  E  E  E  E  E  E  E  E   
E|-----------------------------------------------------|
B|-----------------------------------------------------|
G|-----------------------------------------------------|
D|-----------------------------------------------------|
A|-----------------------4--------4--------4-----------|
E|--2-----------------2-----2--2-----2--2-----2--2--2--|

                             PM PM    PM PM    PM PM    PM PM PM  
  E  E  E  E  E  E  E  E     E  E  E  E  E  E  E  E  E  E  E  E   
E|--------------------------|--------------------------------------|
B|--------------------------|--------------------------------------|
G|--------------------------|--------------------------------------|
D|--------------------------|--------------------------------------|
A|-----4--2--0--2--0-----0--|--------2--------2--------2-----------|
E|--2-----------------4-----|--0--0-----0--0-----0--0-----0--0--0--|

                              Have we come too far...  
  E  E  E  E  E  E  E  E                               
E|------------------------------------------------------|
B|------------------------------------------------------|
G|------------------------------------------------------|
D|------------------------------------------------------|
A|-----4--2--0--2--0--2--2------------------------------|
E|--0---------------------------------------------------|

  PM PM    PM PM    PM PM    PM PM PM                             
  E  E  E  E  E  E  E  E  E  E  E  E     E  E  E  E  E  E  E  E   
E|--------------------------------------|--------------------------|
B|--------------------------------------|--------------------------|
G|--------------------------------------|--------------------------|
D|--------------------------------------|--------------------------|
A|--------4--------4--------4-----------|-----4--2--0--2--0-----0--|
E|--2--2-----2--2-----2--2-----2--2--2--|--2-----------------4-----|

  PM PM    PM PM    PM PM    PM PM PM                             
  E  E  E  E  E  E  E  E  E  E  E  E     E  E  E  E  E  E  E  E   
E|--------------------------------------|--------------------------|
B|--------------------------------------|--------------------------|
G|--------------------------------------|--------------------------|
D|--------------------------------------|--------------------------|
A|--------2--------2--------2-----------|-----4--2--0--2--0--2--2--|
E|--0--0-----0--0-----0--0-----0--0--0--|--0-----------------------|


  social control...                                   
  PM                PM    PM PM    PM PM    PM PM PM  
  E                 E  E  E  E  E  E  E  E  E  E  E   
E|-----------------------------------------------------|
B|-----------------------------------------------------|
G|-----------------------------------------------------|
D|-----------------------------------------------------|
A|-----------------------4--------4--------4-----------|
E|--2-----------------2-----2--2-----2--2-----2--2--2--|

                             PM PM    PM PM    PM PM    PM PM PM  
  E  E  E  E  E  E  E  E     E  E  E  E  E  E  E  E  E  E  E  E   
E|--------------------------|--------------------------------------|
B|--------------------------|--------------------------------------|
G|--------------------------|--------------------------------------|
D|--------------------------|--------------------------------------|
A|-----4--2--0--2--0-----0--|--------2--------2--------2-----------|
E|--2-----------------4-----|--0--0-----0--0-----0--0-----0--0--0--|



                                                   [Chorus]

                                                Have we come too far...                      
  E  E  E  E  E  E  E  E                                 W                 
E|------------------------------------------------------|-------------------|
B|------------------------------------------------------|-------------------|
G|------------------------------------------------------|-------------------|
D|------------------------------------------------------|-------------------|
A|-----4--2--0--2--0--2--2------------------------------|--4----------------|
E|--0---------------------------------------------------|--2----------------|

  W                   Q.     E  H           W                 
E|-------------------|---------------------|-------------------|
B|-------------------|---------------------|-------------------|
G|-------------------|---------------------|-------------------|
D|-------------------|--2------------------|-------------------|
--L----------------|--0------2--L--------|--L----------------|
--L----------------|---------0--L--------|--L----------------|


  W                   W                   Q.     E  Q    Q     
E|-------------------|-------------------|----------------------|
B|-------------------|-------------------|----------------------|
G|-------------------|-------------------|--2-------------------|
D|-------------------|-------------------|--0------2--| L----4----|
A|--4----------------|--| L----------------|---------0--L----2----|
E|--2----------------|--| L----------------|----------------------|

  W                   W                   W                 
E|-------------------|-------------------|-------------------|
B|-------------------|-------------------|-------------------|
G|-------------------|-------------------|-------------------|
--L----------------|-------------------|-------------------|
--L----------------|--4----------------|--L----------------|
E|-------------------|--2----------------|--| L----------------|

  Q.     E  H           W                   W                 
E|---------------------|-------------------|-------------------|
B|---------------------|-------------------|-------------------|
G|---------------------|-------------------|-------------------|
D|--2------------------|-------------------|-------------------|
A|--0------2--| L--------|--L----------------|--4----------------|
E|---------0--| L--------|--L----------------|--2----------------|

  W                   Q.     E  Q    Q       E  Q.     Q    Q     
E|-------------------|----------------------|----------------------|
B|-------------------|----------------------|----------------------|
G|-------------------|--2-------------------|----------------------|
D|-------------------|--0------2--| L----4----|--L--7------6----7----|
--L----------------|---------0--L----2----|--L--5------4----5----|
--L----------------|----------------------|----------------------|


[Verse]

  Microchip Logic                                                              
  PM PM    PM PM    PM PM    PM PM PM                             
  E  E  E  E  E  E  E  E  E  E  E  E     E  E  E  E  E  E  E  E   
E|--------------------------------------|--------------------------|
B|--------------------------------------|--------------------------|
G|--------------------------------------|--------------------------|
D|--------------------------------------|--------------------------|
A|--------4--------4--------4-----------|-----4--2--0--2--0-----0--|
E|--2--2-----2--2-----2--2-----2--2--2--|--2-----------------4-----|

  PM PM    PM PM    PM PM    PM PM PM                             
  E  E  E  E  E  E  E  E  E  E  E  E     E  E  E  E  E  E  E  E   
E|--------------------------------------|--------------------------|
B|--------------------------------------|--------------------------|
G|--------------------------------------|--------------------------|
D|--------------------------------------|--------------------------|
A|--------2--------2--------2-----------|-----4--2--0--2--0--2--2--|
E|--0--0-----0--0-----0--0-----0--0--0--|--0-----------------------|


  is this wrong, I enter                                   
  PM                     PM    PM PM    PM PM    PM PM PM  
  E                      E  E  E  E  E  E  E  E  E  E  E   
E|----------------------------------------------------------|
B|----------------------------------------------------------|
G|----------------------------------------------------------|
D|----------------------------------------------------------|
A|----------------------------4--------4--------4-----------|
E|--2----------------------2-----2--2-----2--2-----2--2--2--|

                             PM PM    PM PM    PM PM    PM PM PM  
  E  E  E  E  E  E  E  E     E  E  E  E  E  E  E  E  E  E  E  E   
E|--------------------------|--------------------------------------|
B|--------------------------|--------------------------------------|
G|--------------------------|--------------------------------------|
D|--------------------------|--------------------------------------|
A|-----4--2--0--2--0-----0--|--------2--------2--------2-----------|
E|--2-----------------4-----|--0--0-----0--0-----0--0-----0--0--0--|

  E  E  E  E  E  E  E  E   
E|--------------------------|
B|--------------------------|
G|--------------------------|
D|--------------------------|
A|-----4--2--0--2--0--2--2--|
E|--0-----------------------|


  Punch punch punch                                   
  PM                PM    PM PM    PM PM    PM PM PM  
  E                 E  E  E  E  E  E  E  E  E  E  E   
E|-----------------------------------------------------|
B|-----------------------------------------------------|
G|-----------------------------------------------------|
D|-----------------------------------------------------|
A|-----------------------4--------4--------4-----------|
E|--2-----------------2-----2--2-----2--2-----2--2--2--|

                             PM PM    PM PM    PM PM    PM PM PM  
  E  E  E  E  E  E  E  E     E  E  E  E  E  E  E  E  E  E  E  E   
E|--------------------------|--------------------------------------|
B|--------------------------|--------------------------------------|
G|--------------------------|--------------------------------------|
D|--------------------------|--------------------------------------|
A|-----4--2--0--2--0-----0--|--------2--------2--------2-----------|
E|--2-----------------4-----|--0--0-----0--0-----0--0-----0--0--0--|

  E  E  E  E  E  E  E  E   
E|--------------------------|
B|--------------------------|
G|--------------------------|
D|--------------------------|
A|-----4--2--0--2--0--2--2--|
E|--0-----------------------|


  Wide eyes watch...                                   
  PM PM    PM PM    PM PM    PM PM PM  
  E  E  E  E  E  E  E  E  E  E  E  E   
E|--------------------------------------|
B|--------------------------------------|
G|--------------------------------------|
D|--------------------------------------|
A|--------4--------4--------4-----------|
E|--2--2-----2--2-----2--2-----2--2--2--|

                             PM PM    PM PM    PM PM    PM PM PM  
  E  E  E  E  E  E  E  E     E  E  E  E  E  E  E  E  E  E  E  E   
E|--------------------------|--------------------------------------|
B|--------------------------|--------------------------------------|
G|--------------------------|--------------------------------------|
D|--------------------------|--------------------------------------|
A|-----4--2--0--2--0-----0--|--------2--------2--------2-----------|
E|--2-----------------4-----|--0--0-----0--0-----0--0-----0--0--0--|

  E  E  E  E  E  E  E  E   
E|--------------------------|
B|--------------------------|
G|--------------------------|
D|--------------------------|
A|-----4--2--0--2--0--2--2--|
E|--0-----------------------|


  Created from past life...                                   
  PM PM    PM PM    PM PM    PM PM PM  
  E  E  E  E  E  E  E  E  E  E  E  E   
E|--------------------------------------|
B|--------------------------------------|
G|--------------------------------------|
D|--------------------------------------|
A|--------4--------4--------4-----------|
E|--2--2-----2--2-----2--2-----2--2--2--|

                             PM PM    PM PM    PM PM    PM PM PM  
  E  E  E  E  E  E  E  E     E  E  E  E  E  E  E  E  E  E  E  E   
E|--------------------------|--------------------------------------|
B|--------------------------|--------------------------------------|
G|--------------------------|--------------------------------------|
D|--------------------------|--------------------------------------|
A|-----4--2--0--2--0-----0--|--------2--------2--------2-----------|
E|--2-----------------4-----|--0--0-----0--0-----0--0-----0--0--0--|

  E  E  E  E  E  E  E  E   
E|--------------------------|
B|--------------------------|
G|--------------------------|
D|--------------------------|
A|-----4--2--0--2--0--2--2--|
E|--0-----------------------|


  this conscous madness...                                   
  PM PM    PM PM    PM PM    PM PM PM  
  E  E  E  E  E  E  E  E  E  E  E  E   
E|--------------------------------------|
B|--------------------------------------|
G|--------------------------------------|
D|--------------------------------------|
A|--------4--------4--------4-----------|
E|--2--2-----2--2-----2--2-----2--2--2--|

                             PM PM    PM PM    PM PM    PM PM PM  
  E  E  E  E  E  E  E  E     E  E  E  E  E  E  E  E  E  E  E  E   
E|--------------------------|--------------------------------------|
B|--------------------------|--------------------------------------|
G|--------------------------|--------------------------------------|
D|--------------------------|--------------------------------------|
A|-----4--2--0--2--0-----0--|--------2--------2--------2-----------|
E|--2-----------------4-----|--0--0-----0--0-----0--0-----0--0--0--|


                           [Chorus]

                                          Have we come too far...  
  E  E  E  E  E  E  E  E     W                                               
E|--------------------------|-------------------------------------------------|
B|--------------------------|-------------------------------------------------|
G|--------------------------|-------------------------------------------------|
D|--------------------------|-------------------------------------------------|
A|-----4--2--0--2--0--2--2--|--4----------------------------------------------|
E|--0-----------------------|--2----------------------------------------------|

  W                   Q.     E  H           W                 
E|-------------------|---------------------|-------------------|
B|-------------------|---------------------|-------------------|
G|-------------------|---------------------|-------------------|
D|-------------------|--2------------------|-------------------|
--L----------------|--0------2--L--------|--L----------------|
--L----------------|---------0--L--------|--L----------------|


  W                   W                   Q.     E  Q    Q     
E|-------------------|-------------------|----------------------|
B|-------------------|-------------------|----------------------|
G|-------------------|-------------------|--2-------------------|
D|-------------------|-------------------|--0------2--| L----4----|
A|--4----------------|--| L----------------|---------0--L----2----|
E|--2----------------|--| L----------------|----------------------|

  W                   W                   W                 
E|-------------------|-------------------|-------------------|
B|-------------------|-------------------|-------------------|
G|-------------------|-------------------|-------------------|
--L----------------|-------------------|-------------------|
--L----------------|--4----------------|--L----------------|
E|-------------------|--2----------------|--| L----------------|

  Q.     E  H           H        Q.     E     H        Q    E  E   
E|---------------------|---------------------|----------------------|
B|---------------------|---------------------|----------------------|
G|---------------------|---------------------|----------------------|
D|--2------------------|------------------2--|--| L--------L----2--4--|
A|--0------2--| L--------|--2--------L------0--|--L--------L----0--2--|
E|---------0--| L--------|--0--------L---------|----------------------|

  H        Q    E  E     Q.     E  Q.     E     Q.      E  Q.      E   
E|E|----------------------|----------------------|------------------------|
B|E|----------------------|----------------------|------------------------|
G|E|----------------------|----------------------|------------------------|
--L--------L----4--5--|--L------7--L------9--|--L------12--L------11--|
--L--------L----2--3--|--L------5--L------7--|--L------10--L-------9--|
E|----------------------|----------------------|------------------------|


                                       [Solo]

  W                   W                    H         Q     E  E   
E|E|-------------------|-------------------|-------------------------|
B|-------------------|-------------------|--10b--------| L----10--9--|
G|E|-------------------|-------------------|-------------------------|
--L----------------|--L----------------|-------------------------|
--L----------------|--L----------------|-------------------------|
E|-------------------|-------------------|-------------------------|

   H         E  E   E  E     E   E  E   E  E  E  S  S E   
E|-----------------------9--|--7------7--------------------|
B|--10--------10--9--10-----|-----10-----10--9--7--9p-7----|
G|--------------------------|---------------------------9--|
D|--------------------------|------------------------------|
A|--------------------------|------------------------------|
E|--------------------------|------------------------------|

  E  E  E  E  Q    E  E     E  E  E  E  E  E  E  E     E  E  E  E  E  E  E  E   
E|-------------------------|--------------------------|--------------------------|
B|--7----------------------|--------------------------|--------------------------|
G|-----9--8--6--| L----L--4--|--4--4--4--4--4--4--4--4--|--------------------4--6--|
D|-------------------------|--------------------------|-----------4--6--7--------|
A|-------------------------|--------------------------|--4--6--7-----------------|
E|-------------------------|--------------------------|--------------------------|

  E  E  E  E  H           W                 
E|-----------------------|-------------------|
B|--4--5--7--4--7--------|--5----------------|
G|-----------------------|-------------------|
D|-----------------------|-------------------|
A|-----------------------|-------------------|
E|-----------------------|-------------------|

E|---3--| |--3--|  |---3--|  |--3--|
  E   E  E  E  E  E  E   E  E  E  E  E   
E|--7p--5-----5-----5--7p--5-----5-----5--|
B|---------8-----8------------8-----8-----|
G|----------------------------------------|
D|----------------------------------------|
A|----------------------------------------|
E|----------------------------------------|

E|---3--| |---3--|  |---3--|  |---3--|
  E   E  E  E  E   E  E   E  E  E   E  E   
E|--7p--5-----5-----------------------------|
B|---------8-----8p--7--8p--7--5--7p--5-----|
G|---------------------------------------7--|
D|------------------------------------------|
A|------------------------------------------|
E|------------------------------------------|

E|---3--| |--3--|  |---3--|  |--3--|
  E   E  E  E  E  E  E   E  E  E  E  E   
E|--7p--5-----5-----5--7p--5-----5-----5--|
B|---------8-----8------------8-----8-----|
G|----------------------------------------|
D|----------------------------------------|
A|----------------------------------------|
E|----------------------------------------|

E|--3--| |--3--|   |---3---|   |---3---|
  E  E  E  E  E  E   E   E   E   E   E   E      H         H          
E|--5--5--5--7--7--7--10--10--10--15--15--15--|--14--------17b--------|
B|--------------------------------------------|-----------------------|
G|--------------------------------------------|-----------------------|
D|--------------------------------------------|-----------------------|
A|--------------------------------------------|-----------------------|
E|--------------------------------------------|-----------------------|

   E   E   Q    Q     E   E      S   S  E   E   E   E   E   E   E   
E|--17--15--14----| L------------|-------------------------------------|
B|-------------------------14--|--15p-14-----14------14--14----------|
G|---------------------16------|---------16------16----------16--15--|
D|-----------------------------|-------------------------------------|
A|-----------------------------|-------------------------------------|
E|-----------------------------|-------------------------------------|

   S   S  E   E   E   H            E   E   E   E   E   E   S   S  E   
E|-------------------------------|--20--19--17-------------------------|
B|-------------------------------|--------------20--19--17--19p-17-----|
G|--16p-15-----15--16--15--------|---------------------------------19--|
D|---------17--------------------|-------------------------------------|
A|-------------------------------|-------------------------------------|
E|-------------------------------|-------------------------------------|

E|----3----|
   E   E   E   E   E   E   E    E    E      Q.      E  Q     E   E   
E|----------------------------------------|---------------------------|
B|--17--19--17------17--------------------|---------------------------|
G|--------------19------19--18h--19p--18--|--16------15--| L----12--14--|
D|----------------------------------------|---------------------------|
A|----------------------------------------|---------------------------|
E|----------------------------------------|---------------------------|

E|----3----|
   Q.       E   Q     Q        H        Q     E    E    E   
E|---------------------------|-------------------------------|
B|---------------------------|-------------------------------|
G|--14b------14---| L----12----|--11--------L----11h--12p--11--|
D|---------------------------|-------------------------------|
A|---------------------------|-------------------------------|
E|---------------------------|-------------------------------|

  H        E  E  Q        H        E  E  Q        H        H         
E|-----------------------|-----------------------|--------------------|
B|-----------------------|-----------------------|--------------------|
G|--9--------7--9--9b----|--6--------4--6--6b----|--4--------7--------|
D|-----------------------|-----------------------|--------------------|
A|-----------------------|-----------------------|--------------------|
E|-----------------------|-----------------------|--------------------|

E|----3---| |---3---|  |---3---|  |---3--|
   E    E   E   E   E   E  E   E   E  E   E  E   
E|--12p--10p--9--10p--9p--7--9p--7p--5--7p--5-----|
B|---------------------------------------------8--|
G|------------------------------------------------|
D|------------------------------------------------|
A|------------------------------------------------|
E|------------------------------------------------|

E|---3--| |---3---|  |---3--|  |---3--|
  E  E   E  E   E   E  E   E  E  E  E   E     E  E  E  E  E  E  E  E   
E|--5----------------------------------------|--------------------------|
B|-----8p--7--8p--7p--5--7p--5-----5---------|-----5--------------------|
G|------------------------------7-----7p--5--|--7-----7--6--7--6--4-----|
D|-------------------------------------------|-----------------------7--|
A|-------------------------------------------|--------------------------|
E|-------------------------------------------|--------------------------|

  E  E  E  E  Q    Q       H        E  Q.        H        H         
E|------------------------|---------------------|--------------------|
B|-----------5--| L----5----|-----------5--7------|--------------------|
G|------------------------|--7------------------|--4--------6--------|
D|--4--5--7---------------|---------------------|--------------------|
A|------------------------|---------------------|--------------------|
E|------------------------|---------------------|--------------------|

  E  E  E  E  E  E  E  E     E  E  E  E  Q    E  E   
E|--------------------------|-----7--------6----| L--4--|
B|-----5--x--x--x--7--x--x--|--x-----x--x-------------|
G|--6-----------------------|-------------------------|
D|--------------------------|-------------------------|
A|--------------------------|-------------------------|
E|--------------------------|-------------------------|

E|---3--| |--3--|  |--3--|  |--3--|
  E   E  E  E  E  E  E  E  E  E  E  E     H        H         
E|--6p--4-----4--------------------------|--------------------|
B|---------7-----7--5--7--5--4--5--4-----|--------------------|
G|------------------------------------4--|--6--------4--------|
D|---------------------------------------|--------------------|
A|---------------------------------------|--------------------|
E|---------------------------------------|--------------------|

  E  E  E  E  E  E  E  E     E  E  E  E  H         
E|--------------------------|-----7--------6--------|
B|-----7-----------5--------|--------x--x-----------|
G|--x-----x--x--x-----x--x--|--x--------------------|
D|--------------------------|-----------------------|
A|--------------------------|-----------------------|
E|--------------------------|-----------------------|

E|---3---| |---3---|  |---3---|  |---3---|
  E   E   E  E   E   E  E   E   E  E   E   E   
E|--9p--7p--5--9p--7p--5--9p--7p--5--9p--7p--5--|
B|----------------------------------------------|
G|----------------------------------------------|
D|----------------------------------------------|
A|----------------------------------------------|
E|----------------------------------------------|

E|----3---| |----3---|  |----3---|  |----3---|
  E   E    E  E   E    E  E   E    E  E   E    E     H         H         
E|--7h--9h--11--7h--9h--11--7h--9h--11--7h--9h--11--|--9b--------9--------|
B|--------------------------------------------------|---------------------|
G|--------------------------------------------------|---------------------|
D|--------------------------------------------------|---------------------|
A|--------------------------------------------------|---------------------|
E|--------------------------------------------------|---------------------|

E|---3---| |---3---|
  E  E   Q     H           E  E.   S  E  E   E   E  E   E   E   
E|--7--9b--| L--------------|--7--9b---Lp-7--9p--7------7----------|
B|--------------10--------|-----------------------10-----10p--7--|
G|------------------------|--------------------------------------|
D|------------------------|--------------------------------------|
A|------------------------|--------------------------------------|
E|------------------------|--------------------------------------|

E|---3---| |---3--|
   E   E   E  E   E  E  H         
E|---------------------------------|
B|--10p--9p--7--9p--7-----7--------|
G|---------------------9-----------|
D|---------------------------------|
A|---------------------------------|
E|---------------------------------|

E|---3---| |---3---|  |---3---|  |---3---|
  E   E   E  E   E   E  E   E   E  E   E   E   
E|--9p--7p--5--9p--7p--5--9p--7p--5--9p--7p--5--|
B|----------------------------------------------|
G|----------------------------------------------|
D|----------------------------------------------|
A|----------------------------------------------|
E|----------------------------------------------|

E|----3---| |----3---|  |----3---|  |----3---|      
  E   E    E  E   E    E  E   E    E  E   E    E      H          Q     E   E   
E|--7h--9h--11--7h--9h--11--7h--9h--11--7h--9h--11--|--16b--------16----16--14--|
B|--------------------------------------------------|---------------------------|
G|--------------------------------------------------|---------------------------|
D|--------------------------------------------------|---------------------------|
A|--------------------------------------------------|---------------------------|
E|--------------------------------------------------|---------------------------|

   H          Q     E   E   
E|--16b--------16----16--14--|
B|---------------------------|
G|---------------------------|
D|---------------------------|
A|---------------------------|
E|---------------------------|

E|----3---| |----3---|   |----3---|   |----3---|
   E    E   E   E   E    E   E    E   E   E   E    E   
E|--16p--14------14-----------16p--14------14-----------|
B|-----------17------17p--15-----------17------17p--15--|
G|------------------------------------------------------|
D|------------------------------------------------------|
A|------------------------------------------------------|
E|------------------------------------------------------|

E|----3---| |----3----|   |----3---|   |----3---|
   E    E   E   E    E    E   E    E   E   E   E    E      H         H         
E|--16p--14----------------14--16p--14------14-----------|----------------------|
B|-----------17--15h--17h---------------17------17p--15--|--16--------15--------|
G|-------------------------------------------------------|----------------------|
D|-------------------------------------------------------|----------------------|
A|-------------------------------------------------------|----------------------|
E|-------------------------------------------------------|----------------------|

   E   E    Q     H            Q     Q      Q     E   E      W                 
E|---------------------------|--17----17b----17----17--15--|--21----------------|
B|--13--15b---| L----13--------|-----------------------------|--------------------|
G|---------------------------|-----------------------------|--------------------|
D|---------------------------|-----------------------------|--------------------|
A|---------------------------|-----------------------------|--------------------|
E|---------------------------|-----------------------------|--------------------|


                                              [Chorus]

  H        E  E  E  E     H        E  E  E  E     W                 
E|-----------------------|-----------------------|-------------------|
B|-----------------------|-----------------------|-------------------|
G|-----------------------|-----------------------|-------------------|
D|--2--------| L-----------|-----------------------|-------------------|
A|--0--------| L--4--2--0--|--5--------L--2--0-----|--4----------------|
E|-----------------------|--3--------| L--------3--|--2----------------|

  W                   Q.     E  H           W                 
E|-------------------|---------------------|-------------------|
B|-------------------|---------------------|-------------------|
G|-------------------|---------------------|-------------------|
D|-------------------|--2------------------|-------------------|
--L----------------|--0------2--L--------|--L----------------|
--L----------------|---------0--L--------|--L----------------|


  W                   W                   Q.     E  Q    Q     
E|-------------------|-------------------|----------------------|
B|-------------------|-------------------|----------------------|
G|-------------------|-------------------|--2-------------------|
D|-------------------|-------------------|--0------2--| L----4----|
A|--4----------------|--| L----------------|---------0--L----2----|
E|--2----------------|--| L----------------|----------------------|

  W                   W                   W                 
E|-------------------|-------------------|-------------------|
B|-------------------|-------------------|-------------------|
G|-------------------|-------------------|-------------------|
--L----------------|-------------------|-------------------|
--L----------------|--4----------------|--L----------------|
E|-------------------|--2----------------|--| L----------------|

  Q.     E  H           W                   W                 
E|---------------------|-------------------|-------------------|
B|---------------------|-------------------|-------------------|
G|---------------------|-------------------|-------------------|
D|--2------------------|-------------------|-------------------|
A|--0------2--| L--------|--L----------------|--4----------------|
E|---------0--| L--------|--L----------------|--2----------------|

  W                   Q.     Q.     Q       E  E  Q    H         
E|-------------------|---------------------|----------------------|
B|-------------------|--3------------------|----------------------|
G|-------------------|--2------------------|----------------------|
D|-------------------|--0------2------4----|--| L--7--L----L--------|
--L----------------|---------0------2----|--L--5--L----L--------|
--L----------------|---------------------|----------------------|


  Q    E  E  E  E  E  E  H           E  E  E  E  E  E  E  E   
E|----------------------------------|--------------------------|
B|----------------------------------|--------------------------|
G|----------------------------------|--------------------------|
D|-------4--------4--------4--------|--------------------------|
A|-------4--------4--------4--------|-----4--2-----2-----------|
E|--2-------2--2-----2--2-----------|--2--------5-----5--4--5--|

  Q    E  E  E  E  E  E  H           E  E  E  E  E  E  E  E   
E|----------------------------------|--------------------------|
B|----------------------------------|--------------------------|
G|----------------------------------|--------------------------|
D|-------4--------4--------4--------|--------------------------|
A|-------4--------4--------4--------|-----4--2-----2-----------|
E|--2-------2--2-----2--2-----------|--2--------5-----5--4--5--|

  Q    E  E  E  E  E  E  H           E  E  E  E  E  E  E  E   
E|----------------------------------|--------------------------|
B|----------------------------------|--------------------------|
G|----------------------------------|--------------------------|
D|-------4--------4--------4--------|--------------------------|
A|-------4--------4--------4--------|-----4--2-----2-----------|
E|--2-------2--2-----2--2-----------|--2--------5-----5--4--5--|

  Q    E  E  E  E  E  E  H           E  E  E  E  E  E  E  E   
E|----------------------------------|--------------------------|
B|----------------------------------|--------------------------|
G|----------------------------------|--------------------------|
D|-------4--------4--------4--------|--------------------------|
A|-------4--------4--------4--------|-----4--2-----2-----------|
E|--2-------2--2-----2--2-----------|--2--------5-----5--4--5--|

  Q    E  E  E  E  E  E  H           E  E  E  E  E  E  E  E   
E|----------------------------------|--------------------------|
B|----------------------------------|--------------------------|
G|----------------------------------|--------------------------|
D|-------4--------4--------4--------|--------------------------|
A|-------4--------4--------4--------|-----4--2-----2-----------|
E|--2-------2--2-----2--2-----------|--2--------5-----5--4--5--|

  W                   W                   W                   W                 
E|-------------------|-------------------|-------------------|-------------------|
B|-------------------|-------------------|-------------------|-------------------|
G|-------------------|-------------------|-------------------|-------------------|
D|-------------------|-------------------|-------------------|-------------------|
A|--2----------------|--| L----------------|--L----------------|--L----------------|
E|--0----------------|--| L----------------|--L----------------|--L----------------|

  W                   W                  
E|-------------------|-------------------| |
B|-------------------|-------------------| |
G|-------------------|-------------------| |
D|-------------------|-------------------| |
--L----------------|--L----------------||
--L----------------|--L----------------||



=============================================================================
=============================================================================
                       
Guitar 2


[Intro]

     W.                  W                   W.                
E||-------------------|-------------------|-------------------|
B||-------------------|-------------------|-------------------|
G||-------------------|-------------------|-------------------|
D||-------------------|-------------------|-------------------|
A||-------------------|-------------------|--2----------------|
E||-------------------|-------------------|--0----------------|


  W                   W.                  W                   W.                
E|-------------------|-------------------|-------------------|-------------------|
B|-------------------|-------------------|-------------------|-------------------|
G|-------------------|-------------------|-------------------|-------------------|
D|-------------------|-------------------|-------------------|--4----------------|
--L----------------|--4----------------|--L----------------|--2----------------|
--L----------------|--2----------------|--L----------------|-------------------|


  W                   W.                  W                   W.                
E|-------------------|-------------------|-------------------|-------------------|
B|-------------------|-------------------|-------------------|-------------------|
G|-------------------|-------------------|-------------------|-------------------|
--L----------------|-------------------|-------------------|-------------------|
--L----------------|--4----------------|--L----------------|--2----------------|
E|-------------------|--2----------------|--| L----------------|--0----------------|

  W                   W.                  W                   W.                
E|-------------------|-------------------|-------------------|-------------------|
B|-------------------|-------------------|-------------------|-------------------|
G|-------------------|-------------------|-------------------|-------------------|
D|-------------------|-------------------|-------------------|--4----------------|
--L----------------|--4----------------|--L----------------|--2----------------|
--L----------------|--2----------------|--L----------------|-------------------|



                   [Verse]

                      PM PM PM PM PM PM PM PM PM PM PM PM  
  W                   E  E  E  E  E  E  E  E  E  E  E  E   
E|-------------------|--------------------------------------|
B|-------------------|--------------------------------------|
G|-------------------|--------------------------------------|
--L----------------|--------------------------------------|
--L----------------|--------4--------4--------4-----------|
E|-------------------|--2--2-----2--2-----2--2-----2--2--2--|

  PM PM PM PM PM PM PM PM    PM PM PM PM PM PM PM PM PM PM PM PM  
  E  E  E  E  E  E  E  E     E  E  E  E  E  E  E  E  E  E  E  E   
E|--------------------------|--------------------------------------|
B|--------------------------|--------------------------------------|
G|--------------------------|--------------------------------------|
D|--------------------------|--------------------------------------|
A|-----4--2-----2-----------|--------2--------2--------2-----------|
E|--2--------5-----5--4--5--|--0--0-----0--0-----0--0-----0--0--0--|

  PM PM PM PM PM PM PM PM    PM PM PM PM PM PM PM PM PM PM PM PM  
  E  E  E  E  E  E  E  E     E  E  E  E  E  E  E  E  E  E  E  E   
E|--------------------------|--------------------------------------|
B|--------------------------|--------------------------------------|
G|--------------------------|--------------------------------------|
D|--------------------------|--------------------------------------|
A|-----4--2-----2-----2--2--|--------4--------4--------4-----------|
E|--0--------5-----5--------|--2--2-----2--2-----2--2-----2--2--2--|

  PM PM PM PM PM PM PM PM    PM PM PM PM PM PM PM PM PM PM PM PM  
  E  E  E  E  E  E  E  E     E  E  E  E  E  E  E  E  E  E  E  E   
E|--------------------------|--------------------------------------|
B|--------------------------|--------------------------------------|
G|--------------------------|--------------------------------------|
D|--------------------------|--------------------------------------|
A|-----4--2-----2-----------|--------2--------2--------2-----------|
E|--2--------5-----5--4--5--|--0--0-----0--0-----0--0-----0--0--0--|

  PM PM PM PM PM PM PM PM    PM PM PM PM PM PM PM PM PM PM PM PM  
  E  E  E  E  E  E  E  E     E  E  E  E  E  E  E  E  E  E  E  E   
E|--------------------------|--------------------------------------|
B|--------------------------|--------------------------------------|
G|--------------------------|--------------------------------------|
D|--------------------------|--------------------------------------|
A|-----4--2-----2-----2--2--|--------4--------4--------4-----------|
E|--0--------5-----5--------|--2--2-----2--2-----2--2-----2--2--2--|

  PM PM PM PM PM PM PM PM    PM PM PM PM PM PM PM PM PM PM PM PM  
  E  E  E  E  E  E  E  E     E  E  E  E  E  E  E  E  E  E  E  E   
E|--------------------------|--------------------------------------|
B|--------------------------|--------------------------------------|
G|--------------------------|--------------------------------------|
D|--------------------------|--------------------------------------|
A|-----4--2-----2-----------|--------2--------2--------2-----------|
E|--2--------5-----5--4--5--|--0--0-----0--0-----0--0-----0--0--0--|

  PM PM PM PM PM PM PM PM    PM PM PM PM PM PM PM PM PM PM PM PM  
  E  E  E  E  E  E  E  E     E  E  E  E  E  E  E  E  E  E  E  E   
E|--------------------------|--------------------------------------|
B|--------------------------|--------------------------------------|
G|--------------------------|--------------------------------------|
D|--------------------------|--------------------------------------|
A|-----4--2-----2-----2--2--|--------4--------4--------4-----------|
E|--0--------5-----5--------|--2--2-----2--2-----2--2-----2--2--2--|

  PM PM PM PM PM PM PM PM    PM PM PM PM PM PM PM PM PM PM PM PM  
  E  E  E  E  E  E  E  E     E  E  E  E  E  E  E  E  E  E  E  E   
E|--------------------------|--------------------------------------|
B|--------------------------|--------------------------------------|
G|--------------------------|--------------------------------------|
D|--------------------------|--------------------------------------|
A|-----4--2-----2-----------|--------2--------2--------2-----------|
E|--2--------5-----5--4--5--|--0--0-----0--0-----0--0-----0--0--0--|

  PM PM PM PM PM PM PM PM    PM PM PM PM PM PM PM PM PM PM PM PM  
  E  E  E  E  E  E  E  E     E  E  E  E  E  E  E  E  E  E  E  E   
E|--------------------------|--------------------------------------|
B|--------------------------|--------------------------------------|
G|--------------------------|--------------------------------------|
D|--------------------------|--------------------------------------|
A|-----4--2-----2-----2--2--|--------4--------4--------4-----------|
E|--0--------5-----5--------|--2--2-----2--2-----2--2-----2--2--2--|

  PM PM PM PM PM PM PM PM    PM PM PM PM PM PM PM PM PM PM PM PM  
  E  E  E  E  E  E  E  E     E  E  E  E  E  E  E  E  E  E  E  E   
E|--------------------------|--------------------------------------|
B|--------------------------|--------------------------------------|
G|--------------------------|--------------------------------------|
D|--------------------------|--------------------------------------|
A|-----4--2-----2-----------|--------2--------2--------2-----------|
E|--2--------5-----5--4--5--|--0--0-----0--0-----0--0-----0--0--0--|

  PM PM PM PM PM PM PM PM    PM PM PM PM PM PM PM PM PM PM PM PM  
  E  E  E  E  E  E  E  E     E  E  E  E  E  E  E  E  E  E  E  E   
E|--------------------------|--------------------------------------|
B|--------------------------|--------------------------------------|
G|--------------------------|--------------------------------------|
D|--------------------------|--------------------------------------|
A|-----4--2-----2-----2--2--|--------4--------4--------4-----------|
E|--0--------5-----5--------|--2--2-----2--2-----2--2-----2--2--2--|

  PM PM PM PM PM PM PM PM    PM PM PM PM PM PM PM PM PM PM PM PM  
  E  E  E  E  E  E  E  E     E  E  E  E  E  E  E  E  E  E  E  E   
E|--------------------------|--------------------------------------|
B|--------------------------|--------------------------------------|
G|--------------------------|--------------------------------------|
D|--------------------------|--------------------------------------|
A|-----4--2-----2-----------|--------2--------2--------2-----------|
E|--2--------5-----5--4--5--|--0--0-----0--0-----0--0-----0--0--0--|


                           [Chorus]
  PM PM PM PM PM PM PM PM                                          
  E  E  E  E  E  E  E  E     W                   W                 
E|--------------------------|-------------------|-------------------|
B|--------------------------|-------------------|-------------------|
G|--------------------------|-------------------|-------------------|
D|--------------------------|-------------------|-------------------|
A|-----4--2-----2-----2--2--|--4----------------|--| L----------------|
E|--0--------5-----5--------|--2----------------|--| L----------------|

  Q.     E  H           W                   W                 
E|---------------------|-------------------|-------------------|
B|---------------------|-------------------|-------------------|
G|---------------------|-------------------|-------------------|
D|--2------------------|-------------------|-------------------|
A|--0------2--| L--------|--L----------------|--4----------------|
E|---------0--| L--------|--L----------------|--2----------------|

  W                   Q.     E  Q    Q       W                 
E|-------------------|----------------------|-------------------|
B|-------------------|----------------------|-------------------|
G|-------------------|--2-------------------|-------------------|
D|-------------------|--0------2--| L----4----|--L----------------|
--L----------------|---------0--L----2----|--L----------------|
--L----------------|----------------------|-------------------|


  W                   W                   Q.     E  H         
E|-------------------|-------------------|---------------------|
B|-------------------|-------------------|---------------------|
G|-------------------|-------------------|---------------------|
D|-------------------|-------------------|--2------------------|
A|--4----------------|--| L----------------|--0------2--L--------|
E|--2----------------|--| L----------------|---------0--L--------|

  W                   W                   W                 
E|-------------------|-------------------|-------------------|
B|-------------------|-------------------|-------------------|
G|-------------------|-------------------|-------------------|
-------------------|-------------------|-------------------|
--L----------------|--4----------------|--L----------------|
--L----------------|--2----------------|--L----------------|


  Q.     E  Q    Q       E  Q.     Q    Q     
E|----------------------|----------------------|
B|----------------------|----------------------|
G|--2-------------------|----------------------|
D|--0------2--| L----4----|--L--7------6----7----|
A|---------0--| L----2----|--L--5------4----5----|
E|----------------------|----------------------|


[Verse]

  PM PM PM PM PM PM PM PM PM PM PM PM    PM PM PM PM PM PM PM PM  
  E  E  E  E  E  E  E  E  E  E  E  E     E  E  E  E  E  E  E  E   
E|--------------------------------------|--------------------------|
B|--------------------------------------|--------------------------|
G|--------------------------------------|--------------------------|
D|--------------------------------------|--------------------------|
A|--------4--------4--------4-----------|-----4--2-----2-----------|
E|--2--2-----2--2-----2--2-----2--2--2--|--2--------5-----5--4--5--|

  PM PM PM PM PM PM PM PM PM PM PM PM    PM PM PM PM PM PM PM PM  
  E  E  E  E  E  E  E  E  E  E  E  E     E  E  E  E  E  E  E  E   
E|--------------------------------------|--------------------------|
B|--------------------------------------|--------------------------|
G|--------------------------------------|--------------------------|
D|--------------------------------------|--------------------------|
A|--------2--------2--------2-----------|-----4--2-----2-----2--2--|
E|--0--0-----0--0-----0--0-----0--0--0--|--0--------5-----5--------|

  PM PM PM PM PM PM PM PM PM PM PM PM    PM PM PM PM PM PM PM PM  
  E  E  E  E  E  E  E  E  E  E  E  E     E  E  E  E  E  E  E  E   
E|--------------------------------------|--------------------------|
B|--------------------------------------|--------------------------|
G|--------------------------------------|--------------------------|
D|--------------------------------------|--------------------------|
A|--------4--------4--------4-----------|-----4--2-----2-----------|
E|--2--2-----2--2-----2--2-----2--2--2--|--2--------5-----5--4--5--|

  PM PM PM PM PM PM PM PM PM PM PM PM    PM PM PM PM PM PM PM PM  
  E  E  E  E  E  E  E  E  E  E  E  E     E  E  E  E  E  E  E  E   
E|--------------------------------------|--------------------------|
B|--------------------------------------|--------------------------|
G|--------------------------------------|--------------------------|
D|--------------------------------------|--------------------------|
A|--------2--------2--------2-----------|-----4--2-----2-----2--2--|
E|--0--0-----0--0-----0--0-----0--0--0--|--0--------5-----5--------|

  PM PM PM PM PM PM PM PM PM PM PM PM    PM PM PM PM PM PM PM PM  
  E  E  E  E  E  E  E  E  E  E  E  E     E  E  E  E  E  E  E  E   
E|--------------------------------------|--------------------------|
B|--------------------------------------|--------------------------|
G|--------------------------------------|--------------------------|
D|--------------------------------------|--------------------------|
A|--------4--------4--------4-----------|-----4--2-----2-----------|
E|--2--2-----2--2-----2--2-----2--2--2--|--2--------5-----5--4--5--|

  PM PM PM PM PM PM PM PM PM PM PM PM    PM PM PM PM PM PM PM PM  
  E  E  E  E  E  E  E  E  E  E  E  E     E  E  E  E  E  E  E  E   
E|--------------------------------------|--------------------------|
B|--------------------------------------|--------------------------|
G|--------------------------------------|--------------------------|
D|--------------------------------------|--------------------------|
A|--------2--------2--------2-----------|-----4--2-----2-----2--2--|
E|--0--0-----0--0-----0--0-----0--0--0--|--0--------5-----5--------|

  PM PM PM PM PM PM PM PM PM PM PM PM    PM PM PM PM PM PM PM PM  
  E  E  E  E  E  E  E  E  E  E  E  E     E  E  E  E  E  E  E  E   
E|--------------------------------------|--------------------------|
B|--------------------------------------|--------------------------|
G|--------------------------------------|--------------------------|
D|--------------------------------------|--------------------------|
A|--------4--------4--------4-----------|-----4--2-----2-----------|
E|--2--2-----2--2-----2--2-----2--2--2--|--2--------5-----5--4--5--|

  PM PM PM PM PM PM PM PM PM PM PM PM    PM PM PM PM PM PM PM PM  
  E  E  E  E  E  E  E  E  E  E  E  E     E  E  E  E  E  E  E  E   
E|--------------------------------------|--------------------------|
B|--------------------------------------|--------------------------|
G|--------------------------------------|--------------------------|
D|--------------------------------------|--------------------------|
A|--------2--------2--------2-----------|-----4--2-----2-----2--2--|
E|--0--0-----0--0-----0--0-----0--0--0--|--0--------5-----5--------|

  PM PM PM PM PM PM PM PM PM PM PM PM    PM PM PM PM PM PM PM PM  
  E  E  E  E  E  E  E  E  E  E  E  E     E  E  E  E  E  E  E  E   
E|--------------------------------------|--------------------------|
B|--------------------------------------|--------------------------|
G|--------------------------------------|--------------------------|
D|--------------------------------------|--------------------------|
A|--------4--------4--------4-----------|-----4--2-----2-----------|
E|--2--2-----2--2-----2--2-----2--2--2--|--2--------5-----5--4--5--|

  PM PM PM PM PM PM PM PM PM PM PM PM    PM PM PM PM PM PM PM PM  
  E  E  E  E  E  E  E  E  E  E  E  E     E  E  E  E  E  E  E  E   
E|--------------------------------------|--------------------------|
B|--------------------------------------|--------------------------|
G|--------------------------------------|--------------------------|
D|--------------------------------------|--------------------------|
A|--------2--------2--------2-----------|-----4--2-----2-----2--2--|
E|--0--0-----0--0-----0--0-----0--0--0--|--0--------5-----5--------|

  PM PM PM PM PM PM PM PM PM PM PM PM    PM PM PM PM PM PM PM PM  
  E  E  E  E  E  E  E  E  E  E  E  E     E  E  E  E  E  E  E  E   
E|--------------------------------------|--------------------------|
B|--------------------------------------|--------------------------|
G|--------------------------------------|--------------------------|
D|--------------------------------------|--------------------------|
A|--------4--------4--------4-----------|-----4--2-----2-----------|
E|--2--2-----2--2-----2--2-----2--2--2--|--2--------5-----5--4--5--|

  PM PM PM PM PM PM PM PM PM PM PM PM    PM PM PM PM PM PM PM PM  
  E  E  E  E  E  E  E  E  E  E  E  E     E  E  E  E  E  E  E  E   
E|--------------------------------------|--------------------------|
B|--------------------------------------|--------------------------|
G|--------------------------------------|--------------------------|
D|--------------------------------------|--------------------------|
A|--------2--------2--------2-----------|-----4--2-----2-----2--2--|
E|--0--0-----0--0-----0--0-----0--0--0--|--0--------5-----5--------|



[Chorus]
  W                   W                   Q.     E  H         
E|-------------------|-------------------|---------------------|
B|-------------------|-------------------|---------------------|
G|-------------------|-------------------|---------------------|
D|-------------------|-------------------|--2------------------|
A|--4----------------|--| L----------------|--0------2--L--------|
E|--2----------------|--| L----------------|---------0--L--------|

  W                   W                   W                 
E|-------------------|-------------------|-------------------|
B|-------------------|-------------------|-------------------|
G|-------------------|-------------------|-------------------|
-------------------|-------------------|-------------------|
--L----------------|--4----------------|--L----------------|
--L----------------|--2----------------|--L----------------|


  Q.     E  Q    Q       W                   W                 
E|----------------------|-------------------|-------------------|
B|----------------------|-------------------|-------------------|
G|--2-------------------|-------------------|-------------------|
D|--0------2--| L----4----|--L----------------|-------------------|
---------0--L----2----|--L------------
Outros vídeos desta música
    15 exibições
      • ½ Tom
      • A
      • Bb
      • B
      • C
      • Db
      • D
      • Eb
      • E
      • F
      • F#
      • G
      • Ab
    • Adicionar à lista

    Afinação da cifra

    Afinador online

      0 comentários

      Ver todos os comentários

      Entre para o Cifra Club PRO

      Tenha acesso a benefícios exclusivos no App e no Site

      • Chega de anúncios

      • Badges exclusivas

      • Mais recursos no app do Afinador

      • Atendimento Prioritário

      • Aumente seu limite de lista

      • Ajude a produzir mais conteúdo

      Cifra Club Pro

      Aproveite o Cifra Club com benefícios exclusivos e sem anúncios
      Cifra Club Pro
      Aproveite o Cifra Club com benefícios exclusivos e sem anúncios
      OK