Enviar cifraEntrar

Silent Lucidity

Queensrÿche

Cifra: Principal
exibições 106.802
Tom: G
Versão 1
-======-


Intro: G G9 G G9 Em Em7/B Em Em7/B 

G        G9           G 
Hush now, don't you cry, 
G9          Em                    Em7/B  Em  Em7/B 
wipe away the teardrop from your eye. 
G           G9             G 
You're lying safe in bed, 
    G9                    Em             Em7/B  Em  Em7/B 
it was all a bad dream spinning in your head. 
C                C9                C 
Your mind tricked you to feel the pain, 
     C9             Am             Am9      Am  Am9 
Of someone close to you leaving the game (of life). 
C     C9            C         C9                    Am 
So here it is, another chance, wide awake you face the day. 
       Am9           Am           
The dream is over,     or has it just begun....? 
G G9 G G9 Em Em7/B Em Em7/B 
G        G9                G 
There's a place I like to hide, 
  G9                Em                 Em7/B  Em  Em7/B 
a doorway that I run through in the night. 
G         G9             G 
Relax child, you were there, 
G9            Em                         Em7/B  Em  Em7/B 
but only didn't realise that you were scared. 
C     C9                   C 
It's a place where you will learn 
    C9                  Am 
to face your fears, retrace the years, 
  Am9                      Am  Am9 
and ride the whims of your mind. 
C            C9         C 
Commanding in another world, 
C9       Am                   Am9           Am        Am9 
suddenly you hear and see this magic new dimension.... 
D  C6 
I...       will be watching over you 
D  C6 
I...       am gonna help to see you through 
D  C6 
I...       will protect you in the night 
D  C6                                             G G9 G G9 
I...       am smiling next to you, in silent lucidity.... 
Solo 
(Voz durante o solo) 
Visualise your dream, 
Record it in the present tense, 
Put it into a permanent form, 
If you persist in all efforts, 
You can achieve a dream come true... 
...a dream come true... 
...a dream come true... 
G      G9                 G 
If you open your mind for me, 
  G9                Em           Em7/B  Em  Em7/B 
you won't rely on open eyes to see. 
G    G9               G 
The walls you built within 
  G9                         Em           Em7/B  Em  Em7/B 
come tumbling down and a new world will begin. 
C       C9                 C 
Living twice at once you learn, 
     C9                           Am 
you're safe from pain in the dream domain, 
 Am9              Am  Am9 
a soul set free to fly. 
C       C9                  C 
A round trip journey in your head, 
C9     Am                 Am9            Am 
master of illusion, can you realise your dream's alive 
         Am9 
You can be the guide, but 
D  C6 
I...       will be watching over you 
D  C6 
I...       am gonna help to see you through 
D  C6 
I...       will protect you in the night 
D  C6 
I...       am smiling next to you.... 
G G9 G G9 G G9 G G9 G 


_______________________________________________________





Versão 2
-======-

SILENT LUCIDITY

(int)

E|+-----7-----7-----5-----5-----5---+
B|+-------0-----0-----0-----0-------+
G|+----0-----0-----0-----0----------+  2x
D|+---------------------------------+
A|+---------------------------------+
E|+---------------------------------+


E|+-----2-----2---------------------+
B|+-------0-----0---3-----3-----3---+
G|+-------------------0-----0-------+-   2x
D|+-2-------2-----2-----2-----2-----+
A|+---------------------------------+
E|+---------------------------------


(part 1)


E|+-----7-----7-----5-----5-----5---+
B|+-------0-----0-----0-----0-------+
G|+----0-----0-----0-----0----------+  2x
D|+---------------------------------+
A|+---------------------------------+
E|+---------------------------------+


E|+-----2-----2---------------------+
B|+-------0-----0---3-----3-----3---+
G|+-------------------0-----0-------+  2x
D|+-2-------2-----2-----2-----2-----+
A|+---------------------------------+
E|+---------------------------------+

(Again)


+-----0-----0---------------------+
+-----------------3-----3-----3---+
+-------0-----0-----0-----0-------+  2x
+---------------------------------+
+-3-------3-----3-----3-----3----
+---------------------------------+


+-----0-----0---------------------+
+-----------------3-----3-----3---+
+-------0-----0-----0-----0-------+  2x
+---------------------------------+
+-0-------0-----0-----0-----0-----+
+---------------------------------+

(Again)


+--------------------------------+
+---3------------------------0-+
+---0--------------0--0h2---+
+---5---------------------------+
+-------------------------------+

(part 2)

E|------------------------------|
B|------------------------------|
G|---4-----4-----2-----2-----2--|
D|-----0-----0-----0-----0-----0|    2x
A|------------------------------|
E|-3-----3-----3-----3-----3----|


E|---2-----2--------------------|
B|-----0-----0---3-----3-----3--|
G|-----------------0-----0-----0|     2x
D|-------2-----2-----2-----2----|
A|------------------------------|
E|-0----------------------------|

(Again)

E|---0-----0--------------------|
B|---------------3-----3-----3--|
G|-----0-----0-----0-----0-----0|  2x
D|------------------------------|
A|-3-----3-----3-----3-----3----|
E|------------------------------|


E|---0-----0--------------------|
B|---------------3-----3-----3--|
G|-----0-----0-----0-----0-----0|   2x
D|------------------------------|
A|-0-----0-----0-----0-----0----|

(Again)

********************************
Chorus:
********************************
Nesta parte ele faz um dedilhado com estas notas abaixo

D                         Cadd9 (C6) see notes
E|----2----3----5----5---0----5----3----2---|
B|----3----3----5----3----3----3----3----3--|
G|----2----2----2----2----0----0----0----2--|
D|------------------------------------------|
A|------------------------------------------|
E|------------------------------------------|

I....                        Will..


D                         Cadd9 (C6)
E|----2----3----5----5---0----7----5----3---|
B|----3----3----5----3----3----0----0----3--|
G|----2----2----2----2----0----0----0----2--|
D|------------------------------------------|
A|------------------------------------------|
E|------------------------------------------|

I....                        Am..





D                         Cadd9 (C6)
E|----2----3----5----5---0----5----3----2---|
B|----3----3----5----3----3----3----3----3--|
G|----2----2----2----2----0----0----0----2--|
D|------------------------------------------|
A|------------------------------------------|
E|------------------------------------------|

I....                        Will..



  D                   Cadd9 (C6)
E|----2----3----5--------------------------|
B|----3----3----5-----3---------------------|
G|----2----2----2-----0-----9---7---5-----5-|
D|-0----0----0----0---2----10---9---5-----5-|
A|--------------------3----------------7----|
E|------------------------------------------|

I....                    Am..

(along with "am smiling next to you")

------------------------|
------------------------|
-9--7--5-----5----------|
10--9--5-----5----------|
----------7-------------|
------------------------|


E|+-----7-----7-----5-----5-----5---+
B|+-------0-----0-----0-----0-------+
G|+---0------0-----0-----0----------+  2x
D|+---------------------------------+
A|+---------------------------------+
E|+---------------------------------+

(durante o solo)

E|--------------------------------|
B|---8-------8-----6-----6-----6--|
G|-----8-------8-----8-----8-----8|
D|-------8-------8-----8-----8----|
A|-6-------6----------------------|
E|--------------------------------|


Rhy Fig 7:

E|------------------------------|
B|---3-----3-----5-----5-----5--|
G|-----5-----5-----5-----5-----5|
D|-------5-----5-----5-----5----|
A|-3----------------------------|
E|------------------------------|






SOLO:

--------------------------------------------------------------------------------
--------------------------------------------------------------------------------
-8--10^12^10--12^15^12--10^12^10--8--3--3^5-----5---5---------------------------
------------------------------------------------------------------5---5---------
--------------------------------------------------------------------------------
--------------------------------------------------------------------------------
                                                                              (10x)

----------------------------------------------------------------------------------|
----------------------------------------------------------------------------------|
-5/7/5-----8--10^12^12--12^15^12--10^12^10---8--/7^8^5---4-4----------------------|
----------------------------------------------------------------------------------|
----------------------------------------------------------------------------------|
----------------------------------------------------------------------------------|


(Voz durante o solo) 
Visualise your dream, 
Record it in the present tense, 
Put it into a permanent form, 
If you persist in all efforts, 
You can achieve a dream come true... 
...a dream come true... 
...a dream come true... 

(part 3)

E|------------------------------|
B|------------------------------|
G|---4-----4-----2-----2-----2--|
D|-----0-----0-----0-----0-----0|    2x
A|------------------------------|
E|-3-----3-----3-----3-----3----|


E|---2-----2--------------------|
B|-----0-----0---3-----3-----3--|
G|-----------------0-----0-----0|     2x
D|-------2-----2-----2-----2----|
A|------------------------------|
E|-0----------------------------|

(Again)

E|---0-----0--------------------|
B|---------------3-----3-----3--|
G|-----0-----0-----0-----0-----0|  2x
D|------------------------------|
A|-3-----3-----3-----3-----3----|
E|------------------------------|


E|---0-----0--------------------|
B|---------------3-----3-----3--|
G|-----0-----0-----0-----0-----0|   2x
D|------------------------------|
A|-0-----0-----0-----0-----0----|

(Again)


********************************
Chorus:
********************************


D                         Cadd9 (C6) see notes
E|----2----3----5----5---0----5----3----2---|
B|----3----3----5----3----3----3----3----3--|
G|----2----2----2----2----0----0----0----2--|
D|------------------------------------------|
A|------------------------------------------|
E|------------------------------------------|

I....                        Will..


D                         Cadd9 (C6)
E|----2----3----5----5---0----7----5----3---|
B|----3----3----5----3----3----0----0----3--|
G|----2----2----2----2----0----0----0----2--|
D|------------------------------------------|
A|------------------------------------------|
E|------------------------------------------|

I....                        Am..





D                         Cadd9 (C6)
E|----2----3----5----5---0----5----3----2---|
B|----3----3----5----3----3----3----3----3--|
G|----2----2----2----2----0----0----0----2--|
D|------------------------------------------|
A|------------------------------------------|
E|------------------------------------------|

I....                        Will..



  D                   Cadd9 (C6)
E|----2----3----5--------------------------|
B|----3----3----5-----3---------------------|
G|----2----2----2-----0-----9---7---5-----5-|
D|-0----0----0----0---2----10---9---5-----5-|
A|--------------------3----------------7----|
E|------------------------------------------|

I....                    Am..

(along with "am smiling next to you")

------------------------|
------------------------|
-9--7--5-----5----------|
10--9--5-----5----------|
----------7-------------|
------------------------|


E|+-----7-----7-----5-----5-----5---+
B|+-------0-----0-----0-----0-------+
G|+--0-------0-----0-----0----------+  4x
D|+---------------------------------+
A|+---------------------------------+
E|+---------------------------------+


E|------7------------7-------
B|---------0-------------------
G|------------------------------
D|---5---------5-----5---------
A|-------------------------------
E|-------------------------------


(lyric)

(PARTE 1)
Hush now, don't you cry,   
wipe away the teardrop from your eye…
You're lying safe in bed, 
it was all a bad dream spinning in your head…
Your mind tricked you to feel the pain,
Of someone close to you leaving the game (of life).
So here it is, another chance, wide awake you face the day.
The dream is over, or has it just begun....?

(PARTE 2)
There's a place I like to hide, 
a doorway that I run through in the night.
Relax child, you were there, 
but only didn't realise that you were scared.
It's a place where you will learn
to face your fears, retrace the years,
and ride the whims of your mind.
Commanding in another world,
suddenly you hear and see this magic new dimension....

(REFRÃO)
I.................will be watching over you
I.................am gonna help to see you through
I.................will protect you in the night
I.................am smiling next to you, in silent lucidity....

(PARTE 3)
If you open your mind for me
, you won't rely on open eyes to see.
The walls you built within
come tumbling down and a new world will begin.
Living twice at once you learn,
you're safe from pain in the dream domain,
a soul set free to fly.
A round trip journey in your head,
master of illusion, can you realise your dream's alive
you can be the guide, but

(REFRÃO)
I.................will be watching over you
I.................am gonna help to see you through
I.................will protect you in the night
I.................am smiling next to you
  • 1
  • 2
  • 3
  • 4
  • 5
  • 6
  • 7
  • 8
  • 9
  • 10
  • 11
  • 12
    Acordes para:
      Composição: Chris DeGarmoColaboração e revisão:
      • Svreung

      0 comentários

        mostrar mais comentários

        Conseguiu tocar?

        10tocaram0ainda não

        Grave um vídeo tocando Silent Lucidity e mande pra gente!

        00:00 / 00:00
        outros vídeos desta música
        repetirqualidadeautomática
        • automática
        Outro vídeos desta música
          00:00 / 00:00
          automática
          • automática
          Acordes para:violão e guitarra
          dificuldadeexibiçõescontribuições
          fecharplay/pause subir/descer velocidade
            acordes
            fechar
            OK
            Feedback