Cifra Club

Waiting For

Queensrÿche

Cifra: Principal (violão e guitarra)
Selo Cifra Club: esta cifra foi revisada para atender aos critérios oficiais da nossa Equipe de Qualidade.
tom: D
  Gtr. I (Michael W.)         (Lead enters 2nd time)                   
        e e e e e e e e          e e e  e e e e  e e e  e e e e    e e e    
||--------------0--------||-||------------0---------------0------|----------
||----------3-------3----||-||----------0---0-----------0---0----|----------
||4*------2---2---2---2-*||-||7*---------------------------------|------6---
||4*----0---------------*||-||4*-----11-------11-----11-------11-|---5------
||-----------------------||-||-----9---------------9-------------|----------
||-----------------------||-||---7---------------7---------------|-3--------
                                                                                

e e e e e e e e e e e   e e e e e e e e e e e e e e   e e e e e e e e e e   
--0-------------0-----|-----------------------------|-----------------------
0---0---------0---0---|---------0-------------0-----|-----------------------
------6-----6-------6-|-------0---0---------0---0---|---------0-------------
----------5-----------|-----4-------4-----4-------4-|-----4-------4-----4---
----------------------|---2-------------2-----------|---4---5---5-----4-----
--------3-------------|-0-------------0-------------|-2-------------2-------
                                                                                

e e e e     e e e e e e e e +H    e e e e e e e e +H    e e e e e e e e +H    
---------||---------------------|---------------------|-------3-------------
---------||-------3---3---------|-------3---3---------|-----------0---3-(3)-
--0-----*||-----0---0-----0-(0)-|-----0---0-----0-(0)-|-----0---0---0-------
------4-*||---4---------4-------|---4---------4-------|---0-----------------
5---5----||-2-------------------|-0-------------------|---------------------
---------||---------------------|---------------------|-3-------------------
                                                                                
  e e e e e e e e +H      e e e e e e e e   e e e e e e e e                   
|-------0-------------|-------------------|-----------------|
|-----------3---------|---------3---3-----|-------3---3-----|
|---------------0-(0)-|4*-----0---0-----5-|-----0---------0-|
|-----2---------------|4*---4---------4---|---4-----4---4---|
|---2-----------------|---2---------------|-0---------------|
|-0-------0---0-------|-------------------|-----------------|
                                                                                

  e e e e e e e e   e e e e e e e e   e e e e e e e e     
|-------3---------|-------0---------|-----------------|
|-----------0---3-|-----------3-----|-------0-------0-|
|-----0---0---0---|---------------0-|-----0-------0---|
|---0-------------|-----2-----------|---4-------4-----|
|-----------------|---2-------------|-2-------4-------|
|-3---------------|-0-------0---0---|-----------------|
                                                                                

  e e e e e e e e   e e e e e e e e   e e e e e e e e   e e e e e e e e     
|-----------------|-----------------|---------0-------|-----------------|
|---------0-------|-------0-------0-|-----------0-----|-------0-------0-|
|-----0-----0-----|-----0-------0---|-----0-------0---|-----0-------0---|
|---4---4-----4---|---4-------4-----|---4---4-------4-|---4-------4-----|
|-5-------------5-|-2-------4-------|-5---------------|-2-------4-------|
|-----------------|-----------------|-----------------|-----------------|
                                                                                

e e e e e e q    e e  e  e +h                                                      
---------------|---------0--0-||
--------0------|---------0--0-||
----0-----0----|------11-0--0-||
--4---4--------|---11---------||
5----------/11-|-9-------9--9-||
---------------|--------------||
                                                                                

Legenda

----------                            ----------
----5h8--- Hammeron                   ----(8)--- Ghost Note
----------                            ----------
----5p8--- Pulloff                    ----------

----------                            ----------
----5/8--- Slide Up                   -----x---- Dead Note
----------                            ----------
----58--- Slide Down                 ----------

----------                            ||------|| Repeat Start & End
----5~~~-- Vibrato                    ||*----*||
----------                            ||*----*||
----------                            ||------||

Rhythm:
  w = whole note            W = dotted whole
  h = half note             H = dotted half
  q = quarter note          Q = dotted quarter
  e = eighth note           E = dotted eighth
  s = sixteenth note        S = dotted sixteenth
  ^ = triplet
Outros vídeos desta música
    560 exibições
      • ½ Tom
      • A
      • Bb
      • B
      • C
      • Db
      • D
      • Eb
      • E
      • F
      • F#
      • G
      • Ab
    • Adicionar à lista

    Afinação da cifra

    Afinador online

      0 comentários

      Ver todos os comentários

      Entre para o Cifra Club PRO

      Tenha acesso a benefícios exclusivos no App e no Site

      • Chega de anúncios

      • Mais recursos no app do Afinador

      • Atendimento Prioritário

      • Aumente seu limite de lista

      • Ajude a produzir mais conteúdo

      Cifra Club Pro

      Aproveite o Cifra Club com benefícios exclusivos e sem anúncios
      Cifra Club Pro
      Aproveite o Cifra Club com benefícios exclusivos e sem anúncios
      OK