Cifra Club

El buen borincano

Quilapayún

Cifra: Versão 2 (violão e guitarra)
Selo Cifra Club: esta cifra foi revisada para atender aos critérios oficiais da nossa Equipe de Qualidade.
tom: E
Introducción:
E|-----------0--------0------2---2---|
B|-----------0--------2------0---0---|
G|---------1---2----2------2---2-----|
D|-----0-2---------------------------|
A|-2-4------------0------2-----------|
E|-----------------------------------|

E|-----------2-4-5-4-2--0------------------------------------|
B|-0-2-4-5----------------4-2--0--2-0------------------------|
G|------------------------------------2-1--1-2-1-2-2/-4---4--|
D|-----------------------------------------------------------|
A|------------------------------------------------------2----|
E|-----------------------------------------------------------|

E|-----------2-4-5-4-5/-7----7----7--7-7-5-4-2---5-4-2-0--0------------|
B|-0-2-4-5-----------------4----4---------------------------4-4-2-4-0--|
G|---------------------------------------------------------------------|
D|---------------------------------------------------------------------|
A|---------------------------------------------------------------------|
E|---------------------------------------------------------------------|

E|-----------0--------0------2---2--2-2-2-0--|
B|-----------0--------2------0---0--0-0-0-0--|
G|---------1---2----2------2---2----2-2-2-1--|
D|-----0-2-----------------------------------|
A|-2-4------------0------2-------------------|
E|----------------------------------------0--|


A)
E       A         B7
Si yo no hubiera nacido
E       A         B7
En la tierra en que nací
E       A        B7
Estuviera arrepentido
E       A         B7
De no haber nacido allí.

A)
Yo no tengo la culpita
Oigan, queridos hermanos
De nacer en esta islita
Y de ser buen borincano.

B)
A               B7
Como yo no soy de piedra
A         B7
Algún día moriré
E         A         B7
y a mi borincana tierra
E       A      E7
Mis despojos dejaré
E        A        B7
Enterradme donde quiera
E         A       B7
Pero si en mi Borinquén.

A)
Bolívar, en Venezuela
en Cuba, Maceo y Martí
y en República Argentina
el glorioso San Martín.

A)
Ya le dieron a sus pueblos
patria y media libertad
y a mi borincana tierra
sabe Dios quién le dará.

B)
Como yo no soy de piedra
Algún día moriré
y a mi borincana tierra
Mis despojos dejaré
Enterradme donde quiera
Pero si en mi Borinquén.
Outros vídeos desta música
    1 exibições
      • ½ Tom
      • A
      • Bb
      • B
      • C
      • Db
      • D
      • Eb
      • E
      • F
      • F#
      • G
      • Ab
    • Adicionar à lista

    Afinação da cifra

    Afinador online

      0 comentários

      Ver todos os comentários

      Conseguiu tocar?

      0Tocaram0Ainda não

      Grave um vídeo tocando El buen borincano e nos envie!

      Toque também

      1. Imagem do artista Violeta ParraLa Jardinera Violeta Parra
      2. Imagem do artista Victor JaraEl Derecho de Vivir En Paz Victor Jara
      3. Imagem do artista IllapuCandombe para José Illapu
      4. Imagem do artista Inti-IllimaniLa Exiliada Del Sur Inti-Illimani

      Entre para o Cifra Club PRO

      Tenha acesso a benefícios exclusivos no App e no Site

      • Chega de anúncios

      • Badges exclusivas

      • Mais recursos no app do Afinador

      • Atendimento Prioritário

      • Aumente seu limite de lista

      • Ajude a produzir mais conteúdo

      Cifra Club Pro

      Aproveite o Cifra Club com benefícios exclusivos e sem anúncios
      Cifra Club Pro
      Aproveite o Cifra Club com benefícios exclusivos e sem anúncios
      OK